Cifra Club

Aprenda

Se o Teu Sangue

Gil Monteiro

Cifra: Principal (violão e guitarra)
tom: G
[Intro] E7M  B  G#m  F#  
        E7M  B  G#m  F#  

E|----------------------------------------------------------------|
B|----------------------------------------------------------------|
G|---8/9---9----8---8/9----9------6---6/8----8----6---6/8----8----|
D|----------------------------------------------------------------|
A|---6/7---7----6---6/7----7------4---4/6----6----4---4/6----6----|
E|----------------------------------------------------------------|

E|----------------------------------------------------------------|
B|----------------------------------------------------------------|
G|---6---6/8----8----6---6/8----8------4----4/6----6----4--6------|
D|----------------------------------------------------------------|
A|---4---4/6----6----4---4/6----6------2----2/4----4----2--4------|
E|----------------------------------------------------------------|

( E7M  B  G#m  F# )
( E7M  B  G#m  F# )

    B                          G#m
A cruz onde Cristo sofreu toda dor
                           F#
É o caminho que mostra o amor
                            E7M
Que perdoa os pecados que eu fiz
     Em7             G#m11
Redenção eu encontro ali

 B4                     G#m7(9)   
Então eu percebo que as dores em mim
                          F#
Em verdade já estão na cruz
                              E7M
Seu eu morrer foi o preço por mim
      Em7              B        
Salvação eu encontro ali

          E              G#m
Troca sublime no altar da dor
            E  C#m          F#4  F#
O Filho de Deus, por um pecador

          B                   E7M
Se o Teu sangue curar, toda ferida em mim
         G#m                    F#           
Livre serei, ó Senhor, pra Te seguir
          B                   E7M
Se o Teu sangue curar, toda ferida em mim
         G#m                    F#           
Livre serei, ó Senhor, pra Te seguir

      E           B     G#m     F#     
Oh oh oh... oh... oh     oh...  oh  
      E           B     G#m     F#     
Oh oh oh... oh... oh     oh...  oh  

 E               B7M       E      E7M        B7M
Não mais haverá lágrimas, não mais sentirei dor
 E               B7M    E      E7M        B
Não mais haverá choro, não mais sentirei dor
 E               B         E     F#  E/G#  F#      B
Não mais haverá lágrimas, não mais        sentirei dor
 E/G#          F#/A#  B  E                 F#
Não mais haverá cho...ro, não mais sentirei dor

[Riff]

E|----------------------------------------------------------------|
B|----------------------------------------------------------------|
G|-----9--8-------------------------------------------------------|
D|-----------9--6---------------6---7-----------------------------|
A|-----------------9--6--7-9--------------------------------------|
E|----------------------------------------------------------------|


          B                    E
Se o Teu sangue curar, toda ferida em mim
         G#m                    F#           
Livre serei, ó Senhor, pra Te seguir
         B/D#                  E
Se o Teu sangue curar, toda ferida em mim
         G#m                    F#           
Livre serei, ó Senhor, pra Te seguir
          B                    E
Se o Teu sangue curar, toda ferida em mim
         G#m                    F#           
Livre serei, ó Senhor, pra Te seguir

      E           B     G#m     F#     
Oh oh oh... oh... oh     oh...  oh  
      E           B     G#m     F#     
Oh oh oh... oh... oh     oh...  oh  

          B                   E7M
Se o Teu sangue curar, toda ferida em mim
         G#m                    F#           
Livre serei, ó Senhor, pra Te seguir
          B                    E
Se o Teu sangue curar, toda ferida em mim
         G#m                    F#           
Livre serei, ó Senhor, pra Te seguir
          B                   E/G#
Se o Teu sangue curar, toda ferida em mim
         G#m                    F#           
Livre serei, ó Senhor, pra Te seguir
Composição de Gil Monteiro
101.208 exibições
    • ½ Tom
    • A
    • Bb
    • B
    • C
    • Db
    • D
    • Eb
    • E
    • F
    • F#
    • G
    • Ab
  • Adicionar à lista

    0 comentários

    Ver todos os comentários
    00:00 / 00:00
    Outros vídeos desta música
    Repetir Qualidade Automático
    Outros vídeos desta música
    00:00 / 00:00
    Automático

    Cifra Club Pro

    Aproveite o Cifra Club com benefícios exclusivos e sem anúncios
    Cifra Club Pro
    Aproveite o Cifra Club com benefícios exclusivos e sem anúncios
    OK