Cifra Club

As Águas do São Francisco

Gino e Geno

Cifra: Principal
exibições 187.411
Tom: G
(intro)

(solo)
|-----------------------------------------------|
|-------------------------04-05-07-05-04--------|
|-----------04-06-----06-----------------06-05--|
|----06-07--------------------------------------|
|-----------------------------------------------|
|-----------------------------------------------|

|-----------04--------------------------------------------------------------|------------|
|--------05-----07-05-04----------------------------------------------------|------------|
|-----04-----------------06-04----04-06-04----04-06-04----------------------|------------|
|--06--------------------------07----------07----------07-06-04-------------|------------|
|---------------------------------------------------------------07-06-04----|--07-06-05--|
|------------------------------------------------------------------------07-|------------|

|-----------------------------------------------|
|-------------------------04-05-07-05-04--------|
|-----------04-06-----06-----------------06-05--|
|----06-07--------------------------------------|
|-----------------------------------------------|
|-----------------------------------------------|

|---04-05-06-07-07-07-06-05-04---04-05-04----------------------------------|-----------------|
|------------------------------07---------07-05-04-05-04-------------------|-----------------|
|--------------------------------------------------------06-04-06-04-------|-----------------|
|--------------------------------------------------------------------07-06-|--------01-02----|
|--------------------------------------------------------------------------|-02-04-----------|
|--------------------------------------------------------------------------|-----------------|

 G                                 D7          G      C
 As águas do São Francisco estava por cima da ponte
                                    G           C     D7
 Este é o grande motivo que eu não pude atravessar
                                               G
 Mas isso eu achei foi bom, fui obrigado a voltar
      C                                     G
 Pra casa do meu amor e passei a noite por lá
                      G
 Fiquei a noite inteirinha
                          D7                 G   C   D7   G   C   D7   G   G7
Ao lado da moreninha esperando as águas baixar
   C                                       G
Enquanto as águas baixava, eu tomava café quente
                  D7                          G
Muitos beijos e abraços, aumentava o amor da gente
  C                                             G
E eu pedindo ao São Pedro, que aumentasse a enchente:
      D7                 G
São Pedro eu estou gostando
                                    D7          G
As águas pode ir aumentando e meu amor fica contente

(falado)

 (C   D7   G)   G7
 " É meus amigos, as águas do São francisco me impediram de atravessar a ponte
 e eu voltei pra casa do meu amor, e isto eu achei bom demais"  (bis)
Acordes para:
    Colaboração e revisão:
    • claudio coura
    • Matwz Capuzzo

    0 comentários

      mostrar mais comentários

      Conseguiu tocar?

      6tocaram0ainda não

      Grave um vídeo tocando As Águas do São Francisco e mande pra gente!

      00:00 / 00:00
      outros vídeos desta música
      repetirqualidadeautomática
      Outro vídeos desta música
        00:00 / 00:00
        automática
        OK