Cifra Club

As Águas do São Francisco

Gino e Geno

Cifra: Principal (violão e guitarra)
tom: E
[Intro] E

E|----------------------------------------------------------------------------------------------------------|
B|------------------7---------------------------------------------------------------------------------------|
G|--------------6-9---9-8-6----------9--9/8--6--6/4---------------------------------------------------------|
D|------6--7--7-------------9---6---9---------------7/6-4/6--7/6--4/6-7/6--4--------------------------------|
A|--7-9----------------------------------------------------------------------7-6-4---------7-6-5------------|
E|---------------------------------------------------------------------------------7-5-4---7----------------|

E|----------------------------------------------------------------------------------------------------------|
B|-------------------7---------------9/10-11-12--10-12-10-12--10/9---9--------------------------------------|
G|--------------6-9----9--8/9-6------------------------------------11--11/9----9----------------------------|
D|------6-7-7--------------------9------------------------------------------13---13-12-9-11-9---------------|
A|--7-9---------------------------------------------------------------------------------------12-11-9-------|
E|------------------------------------------------------------------------------------------------------12--|

 G                                  D7          G      C
 As águas do São Francisco estavam por cima da ponte
                                    G           C     D7
 Este é o grande motivo que eu não pude atravessar
                                               G
 Mas isto eu achei foi bom, fui obrigado a voltar
      C                                     D7
 Pra casa do meu amor e passei a noite por lá
 G      C          G        
 Fiquei a noite inteirinha
                          D7                 G   C   D7   G   C   D7   G   G7
Ao lado da moreninha esperando as águas baixar
   C                                       G
Enquanto as águas baixava, eu tomava café quente
                  D7                          G
Muitos beijos e abraços, aumentava o amor da gente
  C                                             G
E eu pedindo ao São Pedro, que aumentasse a enchente
      D7                 G
São Pedro eu estou gostando
                                    D7          G
As águas pode ir aumentando e meu amor fica contente

 ( ( C   D7  G ) G7 )

   C                                       G
Enquanto as águas baixava, eu tomava café quente
                  D7                          G
Muitos beijos e abraços, aumentava o amor da gente
  C                                             G
E eu pedindo ao São Pedro, que aumentasse a enchente
      D7                 G
São Pedro eu estou gostando
                                    D7          G
As águas pode ir aumentando e meu amor fica contente

 G                                  D7          G      C
 As águas do São Francisco estavam por cima da ponte
                                    G           C     D7
 Este é o grande motivo que eu não pude atravessar
                                               G
 Mas isto eu achei foi bom, fui obrigado a voltar
      C                                     D7
 Pra casa do meu amor e passei a noite por lá
 G      C          G        
 Fiquei a noite inteirinha
                         D7                 G   C   D7   G   C   D7   G   G7
Ao lado da moreninha esperando as águas baixar
00:00 / 00:00
Outros vídeos desta música
Repetir
Outros vídeos desta música
Composição de GENO / Otávio Pimentel
Colaboração e revisão:
263.075 exibições
    • ½ Tom
    • A
    • Bb
    • B
    • C
    • Db
    • D
    • Eb
    • E
    • F
    • F#
    • G
    • Ab
  • Adicionar à lista

    0 comentários

    Ver todos os comentários

    Conseguiu tocar?

    11 Tocaram 5 Ainda não

    Grave um vídeo tocando As Águas do São Francisco e nos envie!

    Entre para oCifra Club PRO

    Tenha acesso a benefícios exclusivos no App e no Site

    • Chega de anúncios

    • Prioridade de compra em lançamentos

    • Mais recursos no app do Afinador

    • Atendimento Prioritário

    • Descontos nos produtos Cifra Club

    • Ajude a produzir mais conteúdo

    00:00 / 00:00

    Cifra Club Pro

    Aproveite o Cifra Club com benefícios exclusivos e sem anúncios
    Cifra Club Pro
    Aproveite o Cifra Club com benefícios exclusivos e sem anúncios
    OK