Cifra Club

Aprenda

Vento Impetuoso Para Homens.

Gisele Nascimento

Cifra: Principal (violão e guitarra)
tom: B
Intro: B G#m B G#m

  C#m                                B               F#
vejo teu agir poderosamente aqui
   C#m                                     B               F#
todos vão falar das boas novas que vem de ti
C#m                                             B
posso eu sentir o fluir de tua presença na
F#      E            F#
 oração..... na oração

 E                              F#
Oh Senhor quero contigo andar
  D#m                             B     A#m  G#m       F#   F#...
e nos teus  átrios, pra sempre estar Senhor

II
     B                         F#                C#m                  E           B
Como vento impetuoso, teu espírito enche todo meu ser
                    E                        C#m       F#    B
pelo teu poder, eu quero te agradecer, como fez em
  F#
pentecostes
           C#m                               E      B                               E
creio que também queres hoje fazer, derramar teu poder
            C#m          F#
nesta congregação.

Intro:
E|----------------------------------------------------------------------------------/
A|----------------------------------------------------------------------------------/
D|--9-11-----------------------------------9-11---------------------------------/
G|---------8-9-9b11----9r11--9-11---------8-9-11-----------------------/
B|-------------------------------------------------------------9-11-12-----------/
E|--------------------------------------------------------------------------9/7~--/

Volta (oh senhor...)
Intro:
E|-------------------------------------------------------------------------------------------------------------/
A|-------------------------------------------------------------------------------------------------------------/
D|-------------------------------------------------------------------------------------------------------------/
G|-------------8-----6--8-6-6/8----------------------------------------------------------------------------/
B|--7~----9-----7------------------5b7r5-5--7---7-9-------------------------------------------------/
E|--------------------------------------------------------------7-9-9/11--12--11----11-12-13-------/

Volta ao coro 3x

Aumenta o coro ½ tom
Intro final:
E|----------------------------------------/
A|----------------------------------------/
D|---------------------------------------/             2x
G|---------------------------------------/
B|-----------8-8/10-------------------/
E|---8--7------------------------------/
Compositor não encontrado.
Colaboração e revisão:
  • miqueias gregorio
  • ANGELO AQUINO
3.280 exibições
    • ½ Tom
    • A
    • Bb
    • B
    • C
    • Db
    • D
    • Eb
    • E
    • F
    • F#
    • G
    • Ab
  • Adicionar à lista

    0 comentários

    Ver todos os comentários
    00:00 / 00:00
    Outros vídeos desta música
    Repetir Qualidade Automático
    Outros vídeos desta música
    00:00 / 00:00
    Automático

    Cifra Club Pro

    Aproveite o Cifra Club com benefícios exclusivos e sem anúncios
    Cifra Club Pro
    Aproveite o Cifra Club com benefícios exclusivos e sem anúncios
    OK