Meu Barquinho

Giselli Cristina

Tom: D# (com acordes na forma de C ) Capotraste na 3ª casa
Intro: G  D  Em7  C9  C/D  G

Solo Intro(Não Usar Capo no Solo):

Parte 1 de 2

E|---6-5-3-5----8-6-5-6-------------------|
B|-6--------6--6-------8------------------|
G|----------------------------------------|
D|----------------------------------------|
A|----------------------------------------|
E|----------------------------------------|

Parte 2 de 2

E|----------------------------------------|
B|8-8-6-6---------------------------------|
G|-------8-8--8-8-7-5-7-7-----------------|
D|----------------------------------------|
A|----------------------------------------|
E|----------------------------------------|

Primeira Parte:

              G                     D/F#
O vento balançou meu barco em alto mar
              Em7              C9
O medo me cercou e quis me afogar;
                   G                 D/F#
Mas, então, eu clamei ao filho de Davi
              Em7
E Ele me escutou
                 C9
Por isso estou aqui

Pré-Refrão:

            G/B  Am
O vento Ele acalmou
   Am7/G       D/F#
O medo repreendeu
                F     C/E      D4  D
Quando Ele ordenou o mar obedeceu

Refrão:

G                  D
  Não temo mais o mar
                       Em7
Pois firme esta minha fé
                    C9              G
No meu barquinho está Jesus de Nazaré
                 D
Se o medo me cercar
                  Em7
Ou se o vento soprar
                  C9
Seu nome eu clamarei
  C/D         G
Ele me guardará

                 D
Não temo mais o mar
                       Em7
Pois firme esta minha fé
                    C9              G
No meu barquinho está Jesus de Nazaré
                 D
Se o medo me cercar
                  Em7
Ou se o vento soprar
                  C9
Seu nome eu clamarei
     C/D
Ele me socorrerá

(Repete Intro com Solo)

(Repete Primeira Parte)

(Repete Pré-Refrão)

(Refrão 2x)

(Repete Intro com Solo)
Página 1 / 1

Letras e título
Acordes e artista

resetar configurações