Cifra Club

A Arte de Fazer Inimigos

Gloria

Cifra: Principal
exibições 24.421
Tom: G
Drop| B

[Intro]

Guitarra 1

 G (2 tempos)    D      Bm
-----------------------------------------
-----------------------------------------
-3---------------------------------------
-3---------------0------3----------------
-1---------------0------3----------------
-----------------0------3----------------

Guitarra 2 (várias palhetadas)

 G       G       D      Bm
-----------------------------------------
-10------8-------5------4/5-4/5--5-------
-10------10------7---------7---7-7-------
-----------------------------------------
-----------------------------------------
-----------------------------------------

[Pré-verso]

-----------------------------------------
-----------------------------------------
-----------------------------------------
-----------------------------------------
-----------------------------------------
-0000-3333-6666-5555--------------------


[Verso]

   xx             xx             xx
-------------------------------------------------------------
-------------------------------------------------------------
--------7/8/7-5-----------------------7/8/7-5---------------- (2X)
-0-00-0-x-x-x-x-0-00-0-------3-0-00-0-x-x-x-x----------------
-0-00-0-5/6/5-3-0-00-0-------3-0-00-0-5/6/5-3----------------
-0-00-0---------0-00-0-5/6/5-3-0-00-0---------00600500300----

   xx             xx             xx           x x xx x x xx
-------------------------------------------------------------
-------------------------------------------------------------
--------7/8/7-5-----------------------7/8/7-5---------------- (2x)
-0-00-0-x-x-x-x-0-00-0-------3-0-00-0-x-x-x-x----------------
-0-00-0-5/6/5-3-0-00-0-------3-0-00-0-5/6/5-3----------------
-0-00-0---------0-00-0-5/6/5-3-0-00-0---------0-0-00-0-0-00--


[Refrão]

Guitarra 1

 G (2 tempos)    D      Bm
-----------------------------------------
-----------------------------------------
-3---------------------------------------
-3---------------0------3----------------
-1---------------0------3----------------
-----------------0------3----------------

Guitarra 2 (várias palhetadas)

 G       G       D      Bm
-----------------------------------------
-10------8-------5------4/5-4/5--5-------
-10------10------7---------7---7-7-------
-----------------------------------------
-----------------------------------------
-----------------------------------------

Obs. Guitarra 2 Variação (várias palhetadas)

 G       G       D      Bm
-----------------12-----13--------------
-10------8-------13-----13--------------
-10------10-----------------------------
----------------------------------------
----------------------------------------
----------------------------------------


[Verso 2]

 x x xxxx x x       x x xxxx x x
-----------------------------------------
-----------------------------------------
--------------55-88--------------6666---- (2x)
-0-0-0000-0-0-xx-xx-0-0-0000-0-0-xxxx----
-0-0-0000-0-0-33-66-0-0-0000-0-0-4444----
-0-0-0000-0-0-------0-0-0000-0-0---------

 x 0 xxxx x 0       x 0 xxxx x 0          x 0 xxxx x 0         x 0 x    x 0
-------------------------------------------------------------------------------------
-------------------------------------------------------------------------------------
--------------55-88------------------------------------------------------------------
-0---0000-0---xx-xx-0---0000-0------------0---0000---0---------0---0------0----------
-0---0000-0---33-66-0---0000-0---444-666--0---0000---0-444-666-0---0------0--444-666-
-0-0-0000-0-0-------0-0-0000-0-0----------0-0-0000-0-0---------0-0-0----0-0----------


[Refrão]

Obs. Guitarra 1 Variação (várias palhetadas, prestar atenção no ritmo; toda em P.M. = abafado)

--------------------------------------------------------------
--------------------------------------------------------------
--------------------------------------------------------------
-8-8-8888-8-8-8-8-8888-8-8-555555-0-0-0000-0-0-0000-333333----
-8-8-8888-8-8-8-8-8888-8-8-555555-0-0-0000-0-0-0000-333333----
-8-8-8888-8-8-8-8-8888-8-8-555555-0-0-0000-0-0-0000-333333----


[Break]

 x 0  xxxx x 0  x x x x  x 0  xxxx x 0
--------------------------------------------------
--------------------------------------------------
-------------------------------------------------- (2x)
-0----0000-0----0-0-0-0--0----0000-0--------------
-0----0000-0----0-0-0-0--0----0000-0--------------
-0-0--0000-0-0--0-0-0-0--0-0--0000-0-0-6666-1111--

-----------------------------------------------------
-----------------------------------------------------
-----------------------------------------------------
-----------------------------------------0--0--6-0---
-----------------------------------------0--0--6-0---
-0000-3333-6666-5555-0000-3333-6666-1111-0--0--6-0---
Acordes para:
    Composição: GloriaColaboração e revisão:
    • Lineu Lucas
    • Felipe Vasconcelos
    • Samuka Rodrigues

    0 comentários

      mostrar mais comentários

      Conseguiu tocar?

      2tocaram0ainda não

      Grave um vídeo tocando A Arte de Fazer Inimigos e mande pra gente!

      00:00 / 00:00
      outros vídeos desta música
      repetirqualidadeautomática
      Outro vídeos desta música
        00:00 / 00:00
        automática
        OK