De Olhos Bem Fechados

Godcore

Composição de: Godcore
tom: E
(intro 4x)   E B A

(riff 1)
E|-0-----0 0---0-----0-0---0-0-0--0--0--0--0-0-0---|
B|-4>5-5-5>7-7-7>9-9-9>10-10-----------------------|
G|-------------------------------------------------|
D|-------------------------------------------------|
A|-------------------------------------------------|
E|-------------------------------------------------|
(trabalhe as notas da corda B variando com a corda E solta)

(intro 4x)   E B A

                 E   B
De olhos bem fechados
    F#m      A
Eu quero chegar
        E  B   A
Ao teu lado poder te tocar
      E         B        F#m       A
E sentir teu calor teu carinho teu amor
             E   B    A
e não me sentir só            ( E B A ) (2x)

              E    B  F#m       A
Fecho os meus olhos e posso te ver
       E     B     A
Desvendar teus mistérios e crer
       E         B     F#m       A       E  B  A   B
Teu espírito me faz sentir um pedaço do céu.....yeeehhh

(refrão)
E   G#m          C#m      A       E
  Fechar os meus olhos a porta do céu
B          C#m     A
  Só quem crê já viu
     E            G#m  C#m     A  B
Ele vive e não morreu........yeeehhh
E      G#m    C#m       A    E
  Eu quero chegar mais perto
          B    C#m   A
Ver quem é o senhor
     E       G#m     C#m     A         E
Pra mim o sentido da vida viver o teu amor

E|--------------------------------------------------------------------------------------|
B|-----------------9----------10-10-10-10-9-9-9-9----------------10-10-10-10-9-9-9-9----|
G|----6-6-9-9-9>11----------------------------------------------------------------------|
D|-6-9-9--------------------------------------------------------------------------------|
A|--------------------------------------------------------------------------------------|
E|--------------------------------------------------------------------------------------|

(solo 2x) E B A

Fecho os meus olhos...

(repete refrão)

( E B A ) (4x)
Viver o teu amor...Viver o teu amor...
Página 1 / 1

Letras e título
Acordes e artista

resetar configurações
OK