Cifra Club

Aprenda

Straight out of Line

Godsmack

Cifra: Principal (violão e guitarra)
Já pensou em usar uma coleção de roupas do Cifra Club? Responda as perguntas abaixo e nos ajude nessa missão! →
tom: F
Introdução Gtr1
D|--------------------------------------------------------------|
A|--------------------------------------------------------------|
F|--------------------------------------------------------------|
C|--------------------------------------------------------------|
G|--7~~~~~(7)\---------10----------9--------------12-------7----|
C|--------------------------------------------------------------|
Com um efeito feito com o volume

D|---------------------------------------------------|
A|---------------------------------------------------|
F|---------------------------------------------------|
C|---------------------------------------------------|
G|---10~~~~~~~~~-------------9--~~~~~~~(9)-----------|
C|---------------------------------------------------|

Gtr 2:
D|-------------------------------------------------------------------|
A|-------------------------------------------------------------------|
F|-------------------------------------------------------------------|
C|-------------------------------------------------------------------|
G|-------------------------------------------------------------------|
C|--0-2-2-2-0-0-0-2-2-2-0-0-0-2-2-3--0-2-2-2-0-0-0-2-2-2-0-0-0-2-2-3-|
pm...................................................................

Gtr 2
D|--------------------------------------------------------|
A|--------------------------------------------------------|
F|--------------------------------------------------------|
C|--------------------------------------------------------|
G|--------------------------------------------------------|
C|--0-2-2-2-0-0-0-2-2-2-0-0-0-2-2-3--0-2-2-2-0-0-0-2-2-2--|
pm........................................................

Gtr 1 2:
D|------------------------------------|
A|------------------------------------|
F|------------------------------------|
C|--0--2-2----0--2-2-2--0--0--3--3----|
G|--0--2-2----0--2-2-2--0--0--3--3----|
C|--0--2-2----0--2-2-2--0--0--3--3----|

D|------------------------------------------------------------------|
A|------------------------------------------------------------------|
F|------------------------------------------------------------------|
C|-0--2--2--2p0--0--2--2--2p0--0--2--2--2p0--0--2--2--2p0--0--2-2-3-|
G|-0--2--2--2p0--0--2--2--2p0--0--2--2--2p0--0--2--2--2p0--0--2-2-3-|
C|-0--2--2--2p0--0--2--2--2p0--0--2--2--2p0--0--2--2--2p0--0--2-2-3-|

D|------------------------------------------|
A|------------------------------------------|
F|------------------------------------------|
C|--0---2--2--2p0--0--2--2--2--0--0--3----0-|
G|--0---2--2--2p0--0--2--2--2--0--0--3----0-|
C|--0---2--2--2p0--0--2--2--2--0--0--3----0-|

No fundo do verso:
D|------------------------------|
A|------------------------------|
F|------------------------------|
C|---0h2-2-2-0-0-0h2-2-2-0-0----|
G|---0h2-2-2-0-0-0h2-2-2-0-0----|
C|---0h2-2-2-0-0-0h2-2-2-0-0----|
pm(with feedback)...............

Verso:
D|-------------------------------------|---------------------|
A|-------------------------------------|---------------------|
F|---9--x--9---x--9---x-9----x-9--x-9-o|-9---x-9-x9-x-9-x----|
C|------------------------------------o|---------------------|
G|-------------------------------------|---------------------|
C|-------------------------------------|---------------------|

D|-------------------------------------|---------------------|
A|-------------------------------------|---------------------|
F|---9--x9h9-x-9----x-9-----xxxxx-----o|-9---x-9h9-x9-x-9-9--|
C|------------------------------------o|---------------------|
G|-------------------------------------|---------------------|
C|-------------------------------------|---------------------|

Refreão
D|---------------------------------------------------------------------|
A|--------------------------------3~--3-33-3-3-3-3-3-------------------|
F|--------------------------------2~--2-22-2-2-2-2-2-------------------|
C|-2~--222-222--5~-5-555-5-555-5--0~--0-00-0-0-0-0-0--3--3--3-3--222-0-|
G|-2~--222-222--5~-5-555-5-555-5--0~--0-00-0-0-0-0-0--3--3--3-3--222-0-|
C|-2~--222-222--5~-5-555-5-555-5--0~--0-00-0-0-0-0-0--3--3--3-3--222-0-|

Continução
D|-------------------------------------------------------------|
A|----------------------------------3---3-333-3333-3--3-3------|
F|----------------------------------2---2-222-2222-2--2-2------|
C|--2--22-222-2-2/5--55-55555-55-5--0---0-000-0000-0--0-0--5---|
G|--2--22-222-2-2/5--55-55555-55-5--0---0-000-0000-0--0-0--3---|
C|--2--22-222-2-2/5--55-55555-55-5--0---0-000-0000-0--0-0--3---|

Final do refrão:
D|----------------------------|
A|----------------------------|
F|----------------------------|
C|--5--------5---------5------|
G|--3--------3---------3------|
C|--3---3-3--3---3-3---3------|
pm      ....     ....

D|------------------------------------------------------|
A|------------------------------------------------------|
F|------------------------------------------------------|
C|-0--2-2--2-0-0--2-2--0---0--3----0-2-2-0-0-0h2-2h3----|
G|-0--2-2--2-0-0--2-2--0---0--3----0-2-2-0-0-0h2-2h3----|
C|-0--2-2--2-0-0--2-2--0---0--3----0-2-2-0-0-0h2-2h3----|

Solo Com Wah:
D|-------------------------------------------------------------|
A|-------------------------------------------------------------|
F|---9-\------9-----(9)~~~-----------------------------------x-|
C|---8-\------8--------------------------------------------x---|
G|-------------------------------x*-----x/---------------------|
C|----------------------------5--x*-------------x/8h(8)/9\-----|

D|-------------------------------------------------------------|
A|-------------------------------------------------------------|
F|------------------------------------9-9---9---9-9--9---------|
C|----------------------------x---8---8-8---8---9-9--9---------|
G|--6--7---7~~~~~--(7)----x------------------------------------|
C|-------------------------------------------------------------|

Solo com Wah:
D|-/0----0--0--0---0--0-0-0--0--0---0----0----0----0--0---0----|
A|--5----5--5--5---5--5/8-8--8--8--11---11---11---11-11--11----|
F|-------------------------------------------------------------|
C|-------------------------------------------------------------|
G|-------------------------------------------------------------|
C|-------------------------------------------------------------|

Continuaçao do solo:
D|---15^-------12--------------------------------------------------|
A|--full----------15h1215h12----12---------------------------------|
F|---------------------------15----15-14-15 14h12-----12h14-12-----|
C|-------------------------------------------------14--------------|
G|-----------------------------------------------------------------|
C|-----------------------------------------------------------------|

continuação:
D|---------15^----(15)----15^-(15)---12--1215h12---0-------15-------------|
A|--0--0--full------------15^-(15)-----15-------15---15/17----17(17)\5/---|
F|-----------------------half---------------------------------------------|
C|------------------------------------------------------------------------|
G|------------------------------------------------------------------------|
C|------------------------------------------------------------------------|

D|----15---17-----15--17----15----17--------15---18----15-15----18-----22^-|
A|-19---19----19----19--1919---19-----11/17----17---17-17----17---17-------|
F|-------------------------------------------------------------------------|
C|-------------------------------------------------------------------------|
G|-------------------------------------------------------------------------|
C|-------------------------------------------------------------------------|

Fundo:
D|---------------------|
A|---------------------|
F|---------------------|
C|--3-33-33-3333-3333--|
G|--3-33-33-3333-3333--|
C|--3-33-33-3333-3333--|
pm    .............

Final da musica:
D|------------------------------------------------------------------------------|
A|------------------------------------------------------------------------------|
F|------------------------------------------------------------------------------|
C|-0-2-2-0-0--2-2-0-0--3---0-2-2-2-0-0-2-2-0-------2h3--0-2-2-2-0-0--2-2-0-0-3--|
G|-0-2-2-0-0--2-2-0-0--3---0-2-2-2-0-0-2-2-0-------2h3--0-2-2-2-0-0--2-2-0-0-3--|
C|-0-2-2-0-0--2-2-0-0--3---0-2-2-2-0-0-2-2-0--12\--2h3--0-2-2-2-0-0--2-2-0-0-3--|

D|--------------------------------------------------------------------------|
A|--------------------------------------------------------------------------|
F|--------------------------------------------------------------------------|
C|-0--2-2-0-0--2-2--0-0-2-2-3---0-2-2-0-0--2-2--0-0--3----------------------|
G|-0--2-2-0-0--2-2--0-0-2-2-3---0-2-2-0-0--2-2--0-0--3----------------------|
C|-0--2-2-0-0--2-2--0-0-2-2-3---0-2-2-0-0--2-2--0-0--3--0-2-2-2-0-0-0-2-2-3-|
pm                                                       ...................
Composição de Sully Erna
Colaboração e revisão:
  • Natan Henrique
6.794 exibições
    • ½ Tom
    • A
    • Bb
    • B
    • C
    • Db
    • D
    • Eb
    • E
    • F
    • F#
    • G
    • Ab
  • Adicionar à lista

    0 comentários

    Ver todos os comentários

    Conseguiu tocar?

    0 Tocaram 0 Ainda não

    Grave um vídeo tocando Straight out of Line e nos envie!

    00:00 / 00:00
    Outros vídeos desta música
    Repetir Qualidade Automático
    Outros vídeos desta música
    00:00 / 00:00
    Automático

    Cifra Club Pro

    Aproveite o Cifra Club com benefícios exclusivos e sem anúncios
    Cifra Club Pro
    Aproveite o Cifra Club com benefícios exclusivos e sem anúncios
    OK