Going home

Goldfinger

Composição de: John Feldmann
tom: F#
INTRO:

D|- F# - G|- G|- A
6x  6x   6x  2x  2x

D|- F# - G|- A
6x  6x   8x  2x

D|- F# - G|- G|- A
6x  6x   6x  2x  2x

e|-----------------------------------14----------------------|
B|--------------3-5-7-5-7-8-10-14-10----15-7-10-3-8-8-7-7-3--|
G|-----------------------------------------------------------|
D|------4-5-7-9----------------------------------------------|
A|--5-5------------------------------------------------------|
E|-----------------------------------------------------------|



VERSO 1:

D          F#        G                    A
I can't do anything, until I see you home tonight
D            F#        G                    A
I can't feel anything, until I see you home tonight
B7      A               G     A
I wanna be back in your arms, i'm so far away
B7      A                G           G     F#   G A G F#
I wanna feel your breath on my face, seems like eternity



REFRAO:

(a guitarra 2 acompanha com esses acordes)
e|---------------------------|
B|---------------------------|
G|----7----11----12----14----|
D|----7----11----12----14----|
A|----5----9-----10----12----|
E|---------------------------|

D
Going home
F#
Going home
G           A
Going home, on our way back home

D
Going home
F#
Going home
G           A
Going home, on our way back home



VERSO 2:

D             F#      G         G   G   A    A
I can't write anything, until I see you home tonight
D            F#    G         A
I can't call anyone, until I see you home tonight


(a guitarra 2 acompanha junto com os acordes da guitarra 1)

e|------------------------|
B|------------------------|
G|----7----6----4----6----|
D|------------------------|
A|------------------------|
E|------------------------|

B7      A          G             A
I wanna be back in LA, let's not start again
B7      C#           D           G     F#   G A G F#
I wanna be back with my friends, seems like eternity


REFRAO:

(a guitarra 2 acompanha junto com os acordes da guitarra 1)

e|------------------------|
B|------------------------|
G|----7----6----4----6----|
D|------------------------|
A|------------------------|
E|------------------------|

D
Going home
F#
Going home
G           A
Going home, on our way back home

D
Going home
F#
Going home
G           A                         D (4x)
Going home, we're on our way back home
Página 1 / 1

Letras e título
Acordes e artista

resetar configurações
OK