Cifra Club

Aprenda

Here In Your Bedroom

Goldfinger

Tab de baixo: Principal
Já pensou em usar uma coleção de roupas do Cifra Club? Responda as perguntas abaixo e nos ajude nessa missão! →
Lyrics and Music by John Feldmann
Transcribed by Nick Michaels


Verse A
e s s e e e e e e trip	e e e e e s s e e e e e e	trip
e e e e


G--------------------------|------------------|-----------------------|---------------------| 
D---------------6--6--7--9-|------------------|-------------4-4-5-7---|---------------------| 
A-r--7-7--7-7--------------|----------6-6-7-6-|--r--5-5-5-5-----------|---------4-4-5-4-----| .
E--------------------------|-7-7-7------------|-----------------------|--5-5-5--------------| 


Verse B
e s s e e e e e e	trip e e e e	e s s e e e e e e
trip	e e e e


G----------------------------|--------------------|----------------------|------------------| 
D--------------2-2-3--2------|--------------------|-------------0-0-1-0--|------------------| 
A-r--3-3-3-3-----------------|---------2-2-3-5----|-r--1-1-1-1-----------|----------0-0-1-0-| 
E----------------------------|--3-3-3-------------|----------------------|-1-1-1------------| 


Prechorus
e e e e e e e e e e e e e e e e	e e e e e e e e e e
e e e e e e


G--------------------|-------------------------|------7-7---5-5-4-----|-------9-9-7-7-5-----| 
D------9-9-7-7-------|------10-10-------10-----|-5-5----------------5-|--7-7--------------0-| 
A-7-7-----------7-7--|-8-8---------8-8-----8---|----------------------|---------------------| 
E--------------------|-------------------------|----------------------|---------------------| 
1st and 2nd Endings
e e e e e e e e e e e e e e e e	w


G--------------------|-------------------------|------| 
D------9-9-7-7-------|------10-10-----10-------|------| 
A-7-7-----------7-7--|-8-8--------8-8-----8----|-10---| 
E--------------------|-------------------------|------| 
3rd Ending
e e e e e e e e	e e e e e e e e e	w
G--------------------|-------------------|-------------| 
D--------------------|-------------------|-------------| 
A-7-7-7-7-7-7-7-7----|-7-7-7-7-7-7-7-7---|---10--------| 
E--------------------|-------------------|-------------| 


Chorus A
q q q e e q q q q q q q e e q q q q
G--------------|----------|-------------|-----------| 
D-------6-7-6--|----------|------4-5-4--|-----------| 
A--7-7---------|----6-7-6-|-5-5---------|----4-5-4--| 
E--------------|-7--------|-------------|-5---------| 


Chorus B1
q q q e e q q q q q q q e e q q q e e	q q q e e	q q q
q q q q e e


G--------------|-----------|------------|---------------|-------------|----------|-------------| 
D-------2-3-2--|-----------|-----0-1-0--|---------------|-----2-3-2---|----------|-------0-1-0-| 
A-3-3----------|----2-3-2--|-1-1--------|---------------|-3-3---------|---2-3-2--|-1-1---------| 
E--------------|-3---------|------------|-1-1-1--1--1---|-------------|-3--------|-------------| 
e e e e e e e e
G-------------------------|
D-------------------------|
A-------------------------|
E-1-1-1-1--1-1-1-1--------|


Chorus B2
q q q e e q q q q q q q e e q q q q q q q e e q q q q q q q e e	q q q q


G------------|----------|-----------|----------|------------|---------|--------------|---------| 
D------2-3-2-|----------|-----0-1-0-|----------|------2-3-2-|---------|------0-1-0---|---------|
A-3-3--------|----2-3-2-|-1-1-------|---0-1-0--|-3-3--------|---2-3-2-|-1-1----------|---0-1-0-| 
E------------|-3--------|-----------|-1--------|------------|-3-------|--------------|-1-------|
w--tie--w e e
G-------|-----|--------|
D-------|-----|--------|
A--3----|--3--|-3-3----|
E-------|-----|--------|


Song Structure-Rest Two Measures for Drum Intro,Verse A x2(vocals kick in),Verse A x2,Verse B x2,Prechorus x1,Chorus A x2,Verse A x2,Verse B x2, Prechorus x1,Chorus A x2,Chorus B1 x1,Verse A x2,Verse B x2,Prechorus x1(use third ending this time),Chorus A x4,Chorus B2 x1 




Nick Michaels

Submitted by:  Goon (*)

Composição de John Feldmann
408 exibições

0 comentários

Ver todos os comentários

Conseguiu tocar?

0 Tocaram 0 Ainda não

Grave um vídeo tocando Here In Your Bedroom e nos envie!

00:00 / 00:00
Outros vídeos desta música
Repetir Qualidade Automático
Outros vídeos desta música
00:00 / 00:00
Automático

Cifra Club Pro

Aproveite o Cifra Club com benefícios exclusivos e sem anúncios
Cifra Club Pro
Aproveite o Cifra Club com benefícios exclusivos e sem anúncios
OK