January

Goldfinger

Composição de: John Feldmann
tom: E
Intro
e|----------------------------------------------------------       |
B|----------------------------------------------------------       | 
G|----------------8----------------------8------------------       | 
D|-----6------6--------------6-------6----------------------       |
A|----------------------------------------------------------       |
E|----------------------------------------------------------       |
                                                                   |
                                                                   |--- 2x
e|----------------------------------------------------------       |
B|---------------9---------------------9--------------------       |
G|-----6----6----------------6----6-------------------------       |
D|----------------------------------------------------------       | 
A|----------------------------------------------------------       | 
E|----------------------------------------------------------       |


E                         A 
I know you told me this before
E                          A 
I know you told me this a million times
E                               A
You say you don't know how you feel 
E                           A   
You don't know if you even love me anymore

B                  A        
If she was a good kisser
B                        A
Then I know how much I miss her 

E
January came
Dbm 
By April you have stayed
B 
June I was in heaven 
A
July was just the same 
E
September rolled around 
Dbm
October wore a frown 
B
By Christmas we were through 


Repete intro apenas uma vez

E                        A
I wish I didn't say I'm sorry
E                              A
I wish you loved me still the same
E                       A  
I wish I wasn't such a wishy-washy prick
E                        A 
I wish I said just how I felt 

B                A  
If I was a good listener
B                         A
Maybe you would still be here 


E
January came
Dbm 
By April you have stayed
B 
June I was in heaven 
A
July was just the same 
E
September rolled around 
Dbm
October wore a frown 
B
By Christmas we were through 

Dbm     Ab              A 
I still miss the way we touch
            E      Eb       Dbm 
I miss the way you bite my tongue
           Ab           A 
I miss the way you run away
        B
You run away 

E
January, February, March, April, May 
Dbm
June through December I wish you would stay 
B                     A
I know you're leaving me
E 
January, February, March, April, May 
Dbm
June through December I wish you would stay 
B
I know you're leaving me 

E                         Dbm 
I know you told me this before
E                          Dbm   
I know you told me this a million times (times)
E                              Dbm
You say you don't know how you feel (feel)
                                A  E  A
When will you know just how you feel? 

E
January came
Dbm 
By April you have stayed
B 
June I was in heaven 
A
July was just the same 
E
September rolled around 
Dbm
October wore a frown 
B
By Christmas we were through 

E
January, February, March, April, May 
Dbm
June through December I wish you would stay 
B                     A
I know you're leaving me (I know you're leaving me)
E 
January, February, March, April, May 
Dbm
June through December I wish you would stay 
B
I know you're leaving me
Página 1 / 1

Letras e título
Acordes e artista

resetar configurações
OK