Cifra Club

Aprenda

Margaret Ann

Goldfinger

Cifra: Principal (violão e guitarra)
Já pensou em usar uma coleção de roupas do Cifra Club? Responda as perguntas abaixo e nos ajude nessa missão! →
tom: C
Intro: Limpo...(duas guitarras..)

e|---------------------------------------------------------
B|---------------------------------------------------------
G|*--------------------------------------------------------
D|*--2-----2-----2-2-2-3-2---------2-----2-2-2-3-2---------
A|-----3-5---3-5-----------5-3-5-3---3-5-----------5-3-5-3-
E|---------------------------------------------------------

    C  G  Am G       F  G
e|--0--3--0--3--| |--1--3--|
B|--1--0--1--0--| |--1--0--|
G|--0--0--2--0--| |--2--0--|
D|--2--0--2--0--| |--3--0--|
A|--3--2--0--2--| |--0--2--|
E|-----3-----3--| |-----3--|
                    --> So small...Margaret Ann
Now once again
They never seem to listen much at all
Once again
They always seem to make you feel]
So small Margaret Ann

Verso:
    C  D  F  G       Bb
e|--------------| |-----|
B|--------------| |-----|
G|--5--7--------| |--3--|
D|--5--7--3--5--| |--3--|
A|--3--5--3--5--| |--1--|
E|--------1--3--| |-----|
                   --> Cuz I know you well Margaret Ann
I know you sometimes worry
I know you want everything right
And you want to make everyone happy
You never wanna see another fight
Cuz I know you well Margaret Ann

Refrão:
    c  B* A  G       F  G
e|--------------| |--------|
B|--------------| |--------|
G|--5-----2-----| |--------|
D|--5--5--2--5--| |--3--5--|
A|--3--2--0--5--| |--3--5--|
E|-----------3--| |--1--3--|
                     --> so small Margaret Ann
Now once again
They never seem to listen much at all
Once again
They always seem to make you feel
so small Margaret Ann

Verso:
    C  D  F  G       Bb
e|--------------| |-----|
B|--------------| |-----|
G|--5--7--------| |--3--|
D|--5--7--3--5--| |--3--|
A|--3--5--3--5--| |--1--|
E|--------1--3--| |-----|
                     --> Cuz I know you well Margaret Ann
I know it seems that they're out to get you
I know it seems that they attack you blind
But I'm here
And you're stronger than that
I'm here to tell you that you're doing fine
Cuz I know you well Margaret Ann

Refrão:
    c  B* A  G       F  G
e|--------------| |--------|
B|--------------| |--------|
G|--5-----2-----| |--------|
D|--5--5--2--5--| |--3--5--|
A|--3--2--0--5--| |--3--5--|
E|-----------3--| |--1--3--|
                     --> so small Margaret Ann
Once again
They never seem to listen much at all
Once again
They always seem to make you feel so small
Margaret Ann

Solo: Base: C D F G... 
e|----------------------------------------------------------------|
B|-------------6-6-6-5------------------6-8-6-5-6-5---------------|
G|--5-5-5h7-7----------5-5h7--5-5-5h7-7-------------7-5-7-7//9-5--|
D|----------------------------------------------------------------|
A|----------------------------------------------------------------|
E|----------------------------------------------------------------|

e|------------------------------------------|
B|------------6-6-6-5---)--------)----------|
G|--5-5-5h7-7---------5-7-5--7-5-7-5-7-9-5--|
D|------------------------------------------|
A|------------------------------------------|
E|------------------------------------------|

    Bb
e|-----|
B|-----|
G|--3--|
D|--3--|
A|--1--|
E|-----|
Cuz I know you well Margaret Ann

Refrão:
    c  B* A  G       F  G
e|--------------| |--------|
B|--------------| |--------|
G|--5-----2-----| |--------|
D|--5--5--2--5--| |--3--5--|
A|--3--2--0--5--| |--3--5--|
E|-----------3--| |--1--3--|
                     --> so small Margaret Ann
Once again
They never seem to listen much at all
Once again
They always seem to make you feel so small
My Margaret Ann
They never seem to listen much at all
Once again 
But everybody sometimes has to fall
Margaret Ann 

Ending
    C
e|-------|
B|-------|
G|--5~~--|
D|--5~~--|
A|--3~~--|
E|-------|
Composição de John Feldmann
Colaboração e revisão:
  • Leandro Leal
1.682 exibições
    • ½ Tom
    • A
    • Bb
    • B
    • C
    • Db
    • D
    • Eb
    • E
    • F
    • F#
    • G
    • Ab
  • Adicionar à lista

    0 comentários

    Ver todos os comentários

    Conseguiu tocar?

    0 Tocaram 0 Ainda não

    Grave um vídeo tocando Margaret Ann e nos envie!

    00:00 / 00:00
    Outros vídeos desta música
    Repetir Qualidade Automático
    Outros vídeos desta música
    00:00 / 00:00
    Automático

    Cifra Club Pro

    Aproveite o Cifra Club com benefícios exclusivos e sem anúncios
    Cifra Club Pro
    Aproveite o Cifra Club com benefícios exclusivos e sem anúncios
    OK