Silence

Gomez

Composição de: Gómez
tom: C Afinação: E A D G B E
   C  F      C?    G
E|-0--0or1---0-----0or3-------|
B|-1--1------8-----3----------|
G|-0--2------9-----4----------|
D|-2--3------0-----5----------|
A|-3--3------10----5----------|
E|----1-----(8)----3----------|

Intro and Verse

C   F   C?  F

Little Run at end of progression, played by bass mainly,
but can hear the guitar do it sometimes, (if not every time).

E|-----------------------------------|
B|-----------------------------------|
G|-----------------------------------|
D|-----------------------------------|
A|-0--1--2---------------------------|
E|-----------------------------------|


Chorus

G   F   C<- only hit once

Solo

Haven't figured it out note for note, just mess around in Cm
Pentatonic it sounds cool.


Outro

Silenceeeee waits for me.....bit
F   C
Página 1 / 1

Letras e título
Acordes e artista

resetar configurações
OK