Cifra Club

Aprenda

Bullet Proof

Goo Goo Dolls

Tab de baixo: Principal
Album: Dizzy up the Girl.

Tuning: (EADG)

Intro: (Guitar plays intro twice then bass comes in)
G|--------------------------------------------------------|
D|--------------------------------------------------------|
A|-----7-7-7-7-7-7-7-7-7--7-7------3-3-3-3-3-3-3-3-3--3-3-|
E|-1/-----------------------------------------------------|

G|-----------------------------------------------------|
D|-----------------------------------------------------|
A|--7-7-7-7-7-7-7-7-7--7-7------3-3-3-3-3-3-3-3-3--3-3-|
E|-----------------------------------------------------|


Verse:
G|---------------------------------------------|
D|---------------------------------------------|
A|-----3------3-----3----3------------3------3-|
E|--0------0-----0----------0------0------0----|


Pre Chorus:
G|-------------------------|
D|-------------------------|
A|--2--3--2---5--3-3--5-5--|(X4)
E|-------------------------|


Chorus:
G|--------------------------------------|
D|--------------------------------------|
A|-----------2-2-2-2--7-7-7-7--3-3-3-3--|
E|--3-3-3-3-----------------------------|
                                              (X2)
G|-----------------------------------------|
D|-----------------------------------------|
A|-----------5-5-5-5--3-3-3-3-3-3-3-3-3-3--|
E|--3-3-3-3--------------------------------|


Break:
G|-----------------------------------------------------|
D|-----------------------------------------------------|
A|--7-7-7-7-7-7-7-7-7--7-7------3-3-3-3-3-3-3-3-3--3-3-|(X2)
E|-----------------------------------------------------|

Verse:
G|---------------------------------------------|
D|---------------------------------------------|
A|-----3------3-----3----3------------3------3-|
E|--0------0-----0----------0------0------0----|

Pre Chorus:
G|-------------------------|
D|-------------------------|
A|--2--3--2---5--3-3--5-5--|(X4)
E|-------------------------|

Chorus:
G|--------------------------------------|
D|--------------------------------------|
A|-----------2-2-2-2--7-7-7-7--3-3-3-3--|
E|--3-3-3-3-----------------------------|
                                              (X2)
G|-----------------------------------------|
D|-----------------------------------------|
A|-----------5-5-5-5--3-3-3-3-3-3-3-3-3-3--|
E|--3-3-3-3--------------------------------|

Break:
G|-----------------------------------------------------|
D|-----------------------------------------------------|
A|--7-7-7-7-7-7-7-7-7--7-7------3-3-3-3-3-3-3-3-3--3-3-|(X3)
E|-----------------------------------------------------|

End break on:
G|---------------------------------|
D|---------------------------------|
A|--7-7-7-7-7-7-7-7-7--7-7------3--|
E|---------------------------------|

Chorus:
G|--------------------------------------|
D|--------------------------------------|
A|-----------2-2-2-2--7-7-7-7--3-3-3-3--|
E|--3-3-3-3-----------------------------|
                                              (X2)
G|-----------------------------------------|
D|-----------------------------------------|
A|-----------5-5-5-5--3-3-3-3-3-3-3-3-3-3--|
E|--3-3-3-3--------------------------------|

End on:
G|-----------------------------------------|
D|-----------------------------------------|
A|-----------5-5-5-5--3-3-3-3-3-3-3-3-3-3--|(X3)
E|--3-3-3-3--------------------------------|


Composição de Johnny Rzeznik
198 exibições

0 comentários

Ver todos os comentários

Conseguiu tocar?

0 Tocaram 0 Ainda não

Grave um vídeo tocando Bullet Proof e nos envie!

00:00 / 00:00
outros vídeos desta música
repetir qualidade Automático
Outros vídeos desta música
00:00 / 00:00
Automático

Cifra Club Pro

Aproveite o Cifra Club com benefícios exclusivos e sem anúncios
Cifra Club Pro
Aproveite o Cifra Club com benefícios exclusivos e sem anúncios
OK