Full Forever

Goo Goo Dolls

Composição de: Johnny Rzeznik / Robby Takac
tom: C
Album: Dizzy up the Girl        Track: 09

radical when you play it..>  

>>> = let ring

Intro: ”And I’ve had to fight..” 
Repeat for whole of Verse 1

e ----------------------------------
B ----------------------------------
G ----------------------------------
D ----7--------9----7---------------
A -------7--------------------------
E -5---5----7----7------------------

Then this Riff: Repeat twice    
e ----------------------------------
B ----------------------------------
G ----------------------------------
D ---------5555555---------5555555--
A -7777777-3333333-7777777-3333333--
E -5555555---------5555555----------
 
Verse 2:”Have you left home in spite..” 
Repeat for whole of Verse 

e ----------------------------------
B ----------------------------------
G ----------------------------------
D ----7--------9----7---------------
A -------7--------------------------
E -5---5----7----7------------------

Pre-Chorus: " and I’ve gone underground..”
Repeat Twice
e ----------------------------------
B ----------------------------------
G ----------------------------------
D ---------5555555---------5555555--
A -7777777-3333333-7777777-3333333--
E -5555555---------5555555----------

Chorus: "Why can’t the moon stay full forever..”
Repeat Twice
e ----------------------------------
B ----------------------------------
G -7777777---------7777777----------
D -7777777-7777777-7777777-7777777--
A -5555555-7777777-5555555-7777777--
E ---------5555555---------5555555--

Then this Riff again:
e ----------------------------------
B ----------------------------------
G ----------------------------------
D ---------5555555---------5555555--
A -7777777-3333333-7777777-3333333--
E -5555555---------5555555----------

Chorus: "Why can’t the moon stay full forever..”
Repeat Twice
e ----------------------------------
B ----------------------------------
G -7777777---------7777777----------
D -7777777-7777777-7777777-7777777--
A -5555555-7777777-5555555-7777777--
E ---------5555555---------5555555--

Now it’s the solo lick which you played for the verses

Then this Riff again:
e ------------------------------------
B ------------------------------------
G ------------------------------------
D ---------5555555---------5555555-7>>
A -7777777-3333333-7777777-3333333-7>>
E -5555555---------5555555---------5>>

That’s it my homies.. >> If you find any problems or want to send me any comments please 
send them to my e-mail.

. . Later Dudes . .

        ToRK
Página 1 / 1

Letras e título
Acordes e artista

resetar configurações
OK