Cifra Club

Aprenda

Slide

Goo Goo Dolls

Cifra: Principal (violão e guitarra)
tom: A
A afinacao esta meio tom abaixo(Eb Ab Db Gb Bb Eb)

Riff Intro:             

e|-------------0-------------------0--------------------------0------------------------
B|-------------------------------------------------------------------------------------
G|-------------------------------------------------------------------------------------
D|--------7-------7-----------9---------9------------------7-------7-------------------
A|---9------------------7--------------------7--------5-----------------------7-------6-
E|-----------------------------------------------------------------------5---------4---

F#m                    E
Could you whisper in my ear
                     D9
The things you wanna feel
I'll give you anything
                  F#m
To feel it coming
                       E
Do you wake up on your own
                     D9
And wonder where you are
You live with all your faults 

RIFF 1 
          D5                             E5
e|----------------------0----------------------------------------------
B|----------------------------------------------------------------------
G|----------------------------------------------------------------------
D|---------7/9-----9-------9------------7-------------------------------
A|---------5/7------------------7-------5--------------------------------
E|----------------------------------------------------------------------
   RIFF 1                 
I wanna wake up where you are

RIFF 1
I won't say anything at all

                  D9  A (3X)    E
So why don't you slide
Yeah were gonna let it slide 

Don't you love the life you killed
The priest is on the phone
Your father hit the wall
Your ma disowned you 

Don't supposed I'll ever know
What it means to be a man
Something I can't change
I'll live around it 

I wanna wake up where you are
I won't say anything at all
So why don't you slide

And I'll do anything you ever dreamed to be complete
Little pieces of the nothing that fall

   F#m
Oh may
                     E
Put your arms around me
         D9               
What you feel is what you are
And what you are is beautiful
   
   F#m
Oh May
                  E                D9
Do you wanna get married or run away

And I'll do anything you ever dreamed to be complete
Little pieces of the nothing that fall

Oh may
Put your arms around me
What you feel is what you are
And what you are is beautiful

Oh may
Do you wanna get married or run away 

I wanna wake up where you are
I won't say anything at all
Composição de Johnny Rzeznik
54.320 exibições
    • ½ Tom
    • A
    • Bb
    • B
    • C
    • Db
    • D
    • Eb
    • E
    • F
    • F#
    • G
    • Ab
  • Adicionar à lista

    0 comentários

    Ver todos os comentários
    00:00 / 00:00
    outros vídeos desta música
    repetir qualidade Automático
    Outros vídeos desta música
    00:00 / 00:00
    Automático

    Cifra Club Pro

    Aproveite o Cifra Club com benefícios exclusivos e sem anúncios
    Cifra Club Pro
    Aproveite o Cifra Club com benefícios exclusivos e sem anúncios
    OK