Cifra Club

Victims Of Love

Good Charlotte

Cifra: Principal (violão e guitarra)
exibições 331
Tom: E
[Keyboard-Intro]

E|--9---9---11---11---12---12---11---11----|
B|----9---9----9----9----9----9----9----9--|
G|-----------------------------------------|
D|-----------------------------------------|--> x2
A|-----------------------------------------| /
E|-----------------------------------------|/


[Intro]

E|--------------------------------------|
B|--------------------------------------|
G|--2--6---2--6-4---2--6---2--4---------|
D|--2--6---2--6-4---2--6---2--4---------|
A|--0--4---0--4-2---0--4---0--2---------|
E|--------------------------------------|


[Verse]

E|--------------------------------------|
B|--------------------------------------|
G|--6--4--2--2----6--4--9---------------|
D|--6--4--2--2----6--4--9--7------------|
A|--4--2--0--0----4--2--7--7------------|
E|-------------------------5------------|


[Pre-Chorus]

E|--------------------------------------|
B|--------------------------------------|
G|--6--4----------6--4--9--9------------|
D|--6--4--7--4----6--4--9--9------------|
A|--4--2--7--4----4--2--7--7------------|
E|--------5--2--------------------------|


[Chorus]

E|--------------------------------------|
B|--------------------------------------|
G|-----6-4-----6-4-----6-4-----4--------|
D|--7--6-4--7--6-4--7--6-4--7--4--------|
A|--7--4-2--7--4-2--7--4-2--7--2--------|
E|--5-------5-------5-------5-----------|


[After-Chorus]

E|--------------------------------------|
B|--------------------------------------|
G|-6--4--9------------------------------|
D|-6--4--9--7---------------------------|--> x4
A|-4--2--7--7---------------------------| /
E|----------5---------------------------|/


[Bride]

E|--------------------------------------|
B|--------------------------------------|
G|--6-6-----6---6-6-6-------------------|
D|--x-x-----x---x-x-x-------------------|--> x2
A|--4-4-----4---4-4-4-------------------| /
E|--------------------------------------|/
Acordes para:
    Composição: Benji Madden / Don Gilmore / Joel MaddenColaboração e revisão:
    • Fernando Castilho

    0 comentários

      mostrar mais comentários

      Conseguiu tocar?

      0tocaram0ainda não

      Grave um vídeo tocando Victims Of Love e mande pra gente!

      00:00 / 00:00
      outros vídeos desta música
      repetirqualidadeAutomático
      Outro vídeos desta música
        00:00 / 00:00
        OK