Cifra Club

All The World Tonight Intro

Graham colton band

Cifra: Principal (violão e guitarra)
tom: Ab (forma dos acordes no tom de G) Capotraste na 1ª casa
(capo 1ª casa)

 Em                          Am              D
E|-------0-----0-----0-------------------3-0--------2-----3-----2-------|
B|---0-----0-----0-------------1---1-0h1-1-----3------3-----3-----3---0-|
G|-----0-----0-----0-----0-0-----2----------------2-----2-----2-----2---|
D|---------------------2---------------------0--------------------------|
A|---------------------------0------------------------------------------|
E|--0-------------------------------------------------------------------|

    C           G
E|----------------3-----------|
B|--1-----1-0-0-----0-----0---|
G|----0---------------0-------|
D|------2---------------------|
A|--3-------------------------|
E|--------------3-------3---2-|  

(repeat this a couple of times)
00:00 / 00:00
Outros vídeos desta música
Repetir
Outros vídeos desta música
Compositor não encontrado.
Colaboração e revisão:
  • Caroline Leroy
329 exibições
    • ½ Tom
    • A
    • Bb
    • B
    • C
    • Db
    • D
    • Eb
    • E
    • F
    • F#
    • G
    • Ab
  • Adicionar à lista

    0 comentários

    Ver todos os comentários

    Conseguiu tocar?

    0 Tocaram 0 Ainda não

    Grave um vídeo tocando All The World Tonight Intro e nos envie!

    Entre para oCifra Club PRO

    Tenha acesso a benefícios exclusivos no App e no Site

    • Chega de anúncios

    • Prioridade de compra em lançamentos

    • Mais recursos no app do Afinador

    • Atendimento Prioritário

    • Descontos nos produtos Cifra Club

    • Ajude a produzir mais conteúdo

    00:00 / 00:00

    Cifra Club Pro

    Aproveite o Cifra Club com benefícios exclusivos e sem anúncios
    Cifra Club Pro
    Aproveite o Cifra Club com benefícios exclusivos e sem anúncios
    OK