Aimless Lady

Grand Funk Railroad

Composição de: Mark Farner
tom: D
[Intro]

    E5  C#4  G/D  C#4
E|-x----x----x----x--|
B|-x----x----x----x--|
G|-x----2----4----2--|
D|-2----4----5----4--|
A|-2----4----5----4--|
E|-0----x----x----x--|

Aimless lady, is this your home town?
Tell me baby, tell me where you're bound
When our eyes met
You were in the very first row
I couldn't even guess your name
But I just had to know

C#4 G/D  (slide)
You were meant for me
Em  C#4  (slide)
Would you care go cope with me?
C#4  G/D
Girl of mystery
Em  C#4
But you just had to be… an aimless lady

Aimless lady, aimless lady

E5    E5
Should I try and satisfy you lady?
Ain't no lie now, we'll get by my baby
If you can stand a real good man now, lady
Take my hand and understand me baby

[Solo]

E5   E5
Take your time your're doin' fine my lady
You got yours and I got mine my baby
Can you see the way to bein' a lady?
Stay with me and set me free my baby

Aimless lady, aimless lady, aimless lady

[Final]

      E5 E5         E5 E5
E|------------3----------5---3--|
B|--------2/4------------5---3--|
G|------------------------------|
D|--2--2----------2--2----------|
A|--2--2----------2--2----------|
E|--0--0----------0--0----------|

You're my aimless lady, aimless lady, ooooh
Página 1 / 1

Letras e título
Acordes e artista

resetar configurações
OK