Cifra Club

Aprenda

Winter And My Soul

Grand Funk Railroad

Cifra: Principal (violão e guitarra)
tom: D
E |-0---0-0-0-0-----------------0---0|
B |----------------------------------|
G |-----4-6-6-4----------------------|
D |-5h7---------7p6p5--------5h7-5h7-| 2X
A |-------------------7p6p5----------|
E |-------------------------5--------|

E |-0--0-0-0---0---0-0-0-|
B |----------------------|
G |----4-6-6p4-4---------|
D |-5h7---------h7-5-5-7-| 2X
A |----------------------|
E |----------------------|

E |-0--0-0-0------0-0-0-----------------0-0--0-0-------|
B |-------------------------------------7-7--7-7-5p4-4-|
G |----4-6-6p4----4-6-6p4-----4-6-6p4-4-----4-------7--|
D |-5h7--------5h7---------5h7-------------------------|
A |----------------------------------------------------|
E |----------------------------------------------------|

E |-----------------------------------------------|
B |-----------------------------------------------|
G |-----------------------------------------------|
D |----7-5-7h9----7-5--7h9----7-5--7h9----7-5-7h9-|
A |-----------------------------------------------|
E |-5-5---5----5-5----5----5-5----5----5-5---5----|

E |-------------------|
B |-------------------|
G |-------------------|
D |----7-5--4---------| 3X
A |-----------5h7p5h7-|
E |-5-5----5----------|

Composição de Mark Farner
Colaboração e revisão:
  • Diego Martins
449 exibições
    • ½ Tom
    • A
    • Bb
    • B
    • C
    • Db
    • D
    • Eb
    • E
    • F
    • F#
    • G
    • Ab
  • Adicionar à lista

    0 comentários

    Ver todos os comentários

    Conseguiu tocar?

    0 Tocaram 0 Ainda não

    Grave um vídeo tocando Winter And My Soul e nos envie!

    00:00 / 00:00
    outros vídeos desta música
    repetir qualidade Automático
    Outros vídeos desta música
    00:00 / 00:00
    Automático

    Cifra Club Pro

    Aproveite o Cifra Club com benefícios exclusivos e sem anúncios
    Cifra Club Pro
    Aproveite o Cifra Club com benefícios exclusivos e sem anúncios
    OK