Cifra Club

Aprenda

Knights Of The Cross

Grave Digger

Cifra: Principal (violão e guitarra)
tom: C
Tabbed by Sylvain Duchet

INTRO:
e------------------------------------------
B------------------------------------------
G--9---------11---------12---------12-11-10
D--9---------11---------12---------12-11-10
A--7---------9----------10---------10-9--8-
E----0-0-0-0----0-0-0-0----0-0-0-0---------

VERSE:
e------------------------------------------
B------------------------------------------
G--9---------9---------9----------12-12-11-
D--9---------9---------9----------12-12-11-
A--7---------7---------7----------10-10-9--
E----0-0-0-0---0-0-0-0----0-0-0-0----------

e------------------------------------------
B------------------------------------------
G--9---------9---------9----------12-12-11-
D--9---------9---------9----------12-12-11-
A--7---------7---------7----------10-10-9--
E----0-0-0-0---0-0-0-0----0-0-0-0----------

e------------------------------------------
B------------------------------------------
G--7---------7---------7----------12-12-11-
D--7---------7---------7----------12-12-11-
A--5---------5---------5----------10-10-9--
E----0-0-0-0---0-0-0-0----0-0-0-0----------

e------------------------------------------
B------------------------------------------
G--9---------9---------9----------5555-7777
D--9---------9---------9----------5555-7777
A--7---------7---------7----------3333-5555
E----0-0-0-0---0-0-0-0----0-0-0-0----------

BRIDGE:
             In the name of   God they kill
e------------------------------------------
B------------------------------------------
G--9------------------------------12-12-11-
D--9------------------------------12-12-11-
A--7------------------------------10-10-9--
E------------------------------------------

             In the name of   God they rape
e------------------------------------------
B------------------------------------------
G--9------------------------------12-12-11-
D--9------------------------------12-12-11-
A--7------------------------------10-10-9--
E------------------------------------------

             Blood leads          to glory
e------------------------------------------
B------------------------------------------
G--7------------------------------12-12-11-
D--7------------------------------12-12-11-
A--5------------------------------10-10-9--
E------------------------------------------

  for         (for)              God's sake
e------------------------------------------
B------------------------------------------
G--9------------------------------5555-7777
D--9------------------------------5555-7777
A--7------------------------------3333-5555
E------------------------------------------

CHORUS:
  Knights                     knights of the
e------------------------------------------
B------------------------------------------
G--9---------9---------9----------12-12-11-
D--9---------9---------9----------12-12-11-
A--7---------7---------7----------10-10-9--
E----0-0-0-0---0-0-0-0----0-0-0-0----------

  cross     murder    muder     fight to de-
e------------------------------------------
B------------------------------------------
G--9---------9---------9----------12-12-11-
D--9---------9---------9----------12-12-11-
A--7---------7---------7----------10-10-9--
E----0-0-0-0---0-0-0-0----0-0-0-0----------

  -fend Jersusalem   from the un-
e-------------------------------
B-------------------------------
G--7--7--5--5--7--7----12-12-11-
D--7--7--5--5--7--7----12-12-11-
A--5--5--3--3--5--5----10-10-9--
E-------------------------------

  -holy       de   -  vils
e------------------------------------------
B------------------------------------------
G--9---------9---------9----------5555-7777
D--9---------9---------9----------5555-7777
A--7---------7---------7----------3333-5555
E----0-0-0-0---0-0-0-0----0-0-0-0----------

SOLO:
duh ! I have no f***ing idea ! Just bend the hell out of your guiatr in E
pentatonic.

Well, that's it ! You will notice the song almost turns around the same
riff all over again, this riff is very close to the chorus of Helloween's
"Victime of fate". Enjoy, and mail me at

Digger stuff to make me tab (for Helloween and Gamma Ray, visit Niuton's
page, he's got a better ear than I do !;)).

Coming soon: "Lionheart" and "Inquisition".

Sylvain.
Metal rulz !
Composição de Chris Boltendahl
2.812 exibições
    • ½ Tom
    • A
    • Bb
    • B
    • C
    • Db
    • D
    • Eb
    • E
    • F
    • F#
    • G
    • Ab
  • Adicionar à lista

    0 comentários

    Ver todos os comentários

    Conseguiu tocar?

    0 Tocaram 0 Ainda não

    Grave um vídeo tocando Knights Of The Cross e nos envie!

    00:00 / 00:00
    Outros vídeos desta música
    Repetir Qualidade Automático
    Outros vídeos desta música
    00:00 / 00:00
    Automático

    Cifra Club Pro

    Aproveite o Cifra Club com benefícios exclusivos e sem anúncios
    Cifra Club Pro
    Aproveite o Cifra Club com benefícios exclusivos e sem anúncios
    OK