Cifra Club

Ensolarado

Graveola e o Lixo Polifônico

Cifra: Principal (violão e guitarra)
Tom: B
[Intro] 

E|----------------------|
B|------4--4------------|
G|------4--4------------|
D|------4--3------------|
A|---------4------------|
E|-2s4------------------|

G#m7
Um sol
C#7(9)
Atravessou
G#m7    C#7(9)
Minha cabeça

E|-0---------------------------------------------------------------------|
B|--4-2------------4-2---------------------------------------------------|
G|-----4-3------------4-3------------------------------------------------|
D|---------4-6-4----------6----------------------------------------------|
A|-----------------------------------------------------------------------|
E|-----------------------------------------------------------------------|
   Me senti assim não entendi pra onde fui

E|-0-----------------2-3-------------------------------------------------|
B|--4-2------------4-----------------------------------------------------|
G|-----4-3---------------------------------------------------------------|
D|---------4-6-4---------------------------------------------------------|
A|-----------------------------------------------------------------------|
E|-----------------------------------------------------------------------|
  Fui parar no meio de lugar nenhum

E
Era pra dizer
E9b
Se fizesse sol
B             G#m7      Eb/G
Que antes era hora de brincar de melodia
F#/Bb    B/Eb  C#m7(11)
Antes o meu mundo era menor
Em7                                             C#7(9)
Depois de ensolarado cheguei a pensar num desvio de tom
F#m7              C7 B7
Tantos caminhos possíveis 
Em7                     Eb°
Depois que o sol já se foi

E|----------------------|
B|------4--4------------|
G|------4--4------------|
D|------4--3------------|
A|---------4------------|
E|-2s4------------------|

G#m7
Um sol
C#7(9)
Atravessou
G#m7    C#7(9)
Minha cabeça

E|-0---------------------------------------------------------------------|
B|--4-2------------4-2---------------------------------------------------|
G|-----4-3------------4-3------------------------------------------------|
D|---------4-6-4----------6----------------------------------------------|
A|-----------------------------------------------------------------------|
E|-----------------------------------------------------------------------|
   Me senti assim não entendi pra onde fui

E|-0-----------------2-3-------------------------------------------------|
B|--4-2------------4-----------------------------------------------------|
G|-----4-3---------------------------------------------------------------|
D|---------4-6-4---------------------------------------------------------|
A|-----------------------------------------------------------------------|
E|-----------------------------------------------------------------------|
  Fui parar no meio de lugar nenhum

E
Era pra dizer
E9b
Se fizesse sol
B             G#m7      Eb/G
Que antes era hora de brincar de melodia
F#/Bb    B/Eb  C#m7(11)
Antes o meu mundo era menor
Em7                                             C#7(9)
Depois de ensolarado cheguei a pensar num desvio de tom
F#m7              C7 B7
Tantos caminhos possíveis 
Em7                     Eb°
Depois que o sol já se foi
exibições 265
Acordes para:
    Composição: Luiz Gabriel Lopes Colaboração e revisão:
    • Matheus Ribeiro

    0 comentários

    mostrar mais comentários

    Conseguiu tocar?

    2 tocaram 0 ainda não

    Grave um vídeo tocando Ensolarado e mande pra gente!

    00:00 / 00:00
    outros vídeos desta música
    repetir qualidade Automático
    Outros vídeos desta música
    00:00 / 00:00
    Automático
    OK