Cifra Club

Aprenda

Maquinário

Graveola e o Lixo Polifônico

Cifra: Principal (violão e guitarra)
Tom: E
Intro:

E|-----------------------------------------|
A|---4---------------------4---------------|
D|-----2-4-------------------2-4-----------|
G|---------2-4---6---6--2--------2-4---6---|
B|-------------5---4-----------------5---4-|
E|-----------------------------------------|

E|------------------------------------------------|
A|---4---------------------4----------------------|
D|-----2-4-------------------2-4------------------|
G|---------2-4---6---6--2--------2-4---6------6---|
B|-------------5---4-----------------5---4--5---4-|
E|------------------------------------------------|

F#m7         B7(9)                           F#m7     B7(9)
oh borboleta ve me arranja esse vento que te faz
              F#7m      B7(9)
voar feito astronave
F#m7       B7(9)                           C        B7(9)
oh astrona ve me arranja esse vento que te faz
               F#m7    B7(9)
voar feito borboleta


       Bm7 E7(9)  F#7
naquela praiaaaa laaaa
naquela planeta dalii
naquela lua cheiaaa
naquele comenta longeeeee...

(F#m7  B7(9)

Repete Intro:

oh vagalume ve se me arranja esse fogo que te faz
brilhar feito lamparina
oh lamparina ve se me arranja esse fogo que te faz
brilhar feito vagalume

naquela estrela laaa
naquela fogueira daliii
naquela lua novaa
naquela lareira longeeee
Composição de Luiz Gabriel Lopes
Colaboração e revisão:
  • Alexandre Godoi
  • Pedro Oliveira
2.220 exibições
    • ½ Tom
    • A
    • Bb
    • B
    • C
    • Db
    • D
    • Eb
    • E
    • F
    • F#
    • G
    • Ab
  • Adicionar à lista

    0 comentários

    Mostrar mais comentários

    Conseguiu tocar?

    2 Tocaram 0 Ainda não

    Grave um vídeo tocando Maquinário e mande pra gente!

    00:00 / 00:00
    outros vídeos desta música
    repetir qualidade Automático
    Outros vídeos desta música
    00:00 / 00:00
    Automático

    Cifra Club Pro

    Aproveite o Cifra Club com benefícios exclusivos e sem anúncios
    7 dias grátis
    Cifra Club Pro
    Aproveite o Cifra Club com benefícios exclusivos e sem anúncios
    7 dias grátis
    OK