Cifra Club

Back In The USA

Green Day

Tab de baixo: Principal
exibições 1.801
[Introdução]

Parte 
G|----------------------------------------------|
D|----------------------------------------------|
A|-5-5--5-5-5--5-5-5-5--5-5--2-2--2-2-2---------|
E|----------------------------------------------|

G|----------------------------------------------|
D|----------------------------------------------|
A|-2-2-2-2--2-2/--12-12--12-12-12--12-12-12-12--|
E|----------------------------------------------|

G|----------------------------------------------|
D|----------------------------------------------|
A|-12-12--10-10-10--9-9-9--10-10-10-9-9-9-------|
E|----------------------------------------------|

G|----------------------------------------------|
D|----------------------------------------------|
A|-10-10-10--12/-5------------------------------|
E|----------------------------------------------|


[Primeira parte]

I woke up to a bitter storm (bitter year)...

Parte 1 de 2 (2x)
G|----------------------------------------------|
D|----------------------------------------------|
A|-5--5-5-5--5-5-5-5--5-5-5-5--5-5-5------------|
E|----------------------------------------------|

G|----------------------------------------------|
D|----------------------------------------------|
A|-2-2-2-2--2-2-2-2--2-2-2-2--2-2-2-------------|
E|----------------------------------------------|

G|----------------------------------------------|
D|----------------------------------------------|
A|-----------------5-5-5-5--5-5-5---------------|
E|-3-3-3-3--3-3-3-------------------------------|

G|----------------------------------------------|
D|----------------------------------------------|
A|----------------------------------------------|
E|-5-5-5-5--5-5-5-5--5-5-5-5--5-5-5-------------|

Parte 2 de 2
G|----------------------------------------------|
D|----------------------------------------------|
A|----------------------------2-2--2-2-2-2--2-2-|
E|-2-2-2--2-2-2--2-2-2--2-2-2-------------------|

G|----------------------------------------------|
D|----------------------------------------------|
A|-2-2-2----------------------------------------|
E|-------3-3--3-3-3-3--3-3--3-3-3/5--5-5--5-5-5-|

G|----------------------------------------------|
D|----------------------------------------------|
A|---------7-5-4--------------------------------|
E|-5--5-5---------------------------------------|


[Refrão]

Back in the USA...

Parte 1 de 2
G|----------------------------------------------|
D|----------------------------------------------|
A|-5-5-5--5-5-5--5-5-5--5-5-5-------------------|
E|----------------------------3-3-3--3-3-3------|

G|----------------------------------------------|
D|----------------------------------------------|
A|---------------5-5-5--5-5-5--5-5-5--5-5-5/----|
E|-3-3-3--3-3-3---------------------------------|

G|----------------------------------------------|
D|----------------------------------------------|
A|-12-12-12--12-12-12--12-12-12--12-12-12-------|
E|----------------------------------------------|

Parte 2 de 2
G|----------------------------------------------|
D|----------------------------------------------|
A|----------------------------------------------|
E|-7-7-7--7-7-7--7-7-7--7-7-7--3-3-3--3-3-3-----|

G|----------------------------------------------|
D|----------------------------------------------|
A|---------------5-5-5--5-5-5--5-5-5--5-5-5-----|
E|-3-3-3--3-3-3---------------------------------|

G|----------------------------------------------|
D|----------------------------------------------|
A|----------------------------------------------|
E|-5-5-5--5-5-5--5---3-5------------------------|


[Introdução 2]

G|----------------------------------------------|
D|----------------------------------------------|
A|-5-5--5-5-5--5-5-5-5--5-5--2-2--2-2-2---------|
E|----------------------------------------------|

G|----------------------------------------------|
D|----------------------------------------------|
A|-2-2-2-2--2-2/--12-12--12-12-12--12-12-12-12--|
E|----------------------------------------------|

G|----------------------------------------------|
D|----------------------------------------------|
A|-12-12--10-10-10--9-9-9-10-10-10-9-9-9-10-10--|
E|----------------------------------------------|

G|----------------------------------------------|
D|----------------------------------------------|
A|-12-------------------------------------------|
E|----------------------------------------------|


[Segunda parte]

The saddest story ever told (bitter year)...

Parte 1 de 2 (2x)
G|----------------------------------------------|
D|----------------------------------------------|
A|-5--5-5-5--5-5-5-5--5-5-5-5--5-5-5------------|
E|----------------------------------------------|

G|----------------------------------------------|
D|----------------------------------------------|
A|-2-2-2-2--2-2-2-2--2-2-2-2--2-2-2-------------|
E|----------------------------------------------|

G|----------------------------------------------|
D|----------------------------------------------|
A|-----------------5-5-5-5--5-5-5---------------|
E|-3-3-3-3--3-3-3-------------------------------|

G|----------------------------------------------|
D|----------------------------------------------|
A|----------------------------------------------|
E|-5-5-5-5--5-5-5-5--5-5-5-5--5-5-5-------------|

Parte 2 de 2
G|----------------------------------------------|
D|----------------------------------------------|
A|----------------------------2-2--2-2-2-2--2-2-|
E|-2-2-2--2-2-2--2-2-2--2-2-2-------------------|

G|----------------------------------------------|
D|----------------------------------------------|
A|-2-2-2----------------------------------------|
E|-------3-3--3-3-3-3--3-3--3-3-3/5--5-5--5-5-5-|

G|----------------------------------------------|
D|----------------------------------------------|
A|---------7-5-4--------------------------------|
E|-5--5-5---------------------------------------|


[Refrão 2]

Back in the USA...

Parte 1 de 2
G|----------------------------------------------|
D|----------------------------------------------|
A|-5-5-5--5-5-5--5-5-5--5-5-5-------------------|
E|----------------------------3-3-3--3-3-3------|

G|----------------------------------------------|
D|----------------------------------------------|
A|---------------5-5-5--5-5-5--5-5-5--5-5-5/----|
E|-3-3-3--3-3-3---------------------------------|

G|----------------------------------------------|
D|----------------------------------------------|
A|-12-12-12--12-12-12--12-12-12--12-12-12-------|
E|----------------------------------------------|

Parte 2 de 2
G|----------------------------------------------|
D|----------------------------------------------|
A|----------------------------------------------|
E|-7-7-7--7-7-7--7-7-7--7-7-7--3-3-3--3-3-3-----|

G|----------------------------------------------|
D|----------------------------------------------|
A|---------------5-5-5--5-5-5--5-5-5--5-5-5-----|
E|-3-3-3--3-3-3---------------------------------|

G|----------------------------------------------|
D|----------------------------------------------|
A|----------------------------------------------|
E|-5-5-5--5-5-5--5---3-5------------------------|


[Introdução 3 - Final]

G|----------------------------------------------|
D|----------------------------------------------|
A|-5-5--5-5-5--5-5-5-5--5-5--2-2--2-2-2---------|
E|----------------------------------------------|

G|----------------------------------------------|
D|----------------------------------------------|
A|-2-2-2-2--2-2/--12-12--12-12-12--12-12-12-12--|
E|----------------------------------------------|

G|----------------------------------------------|
D|----------------------------------------------|
A|-12-12--10-10-10--9-9-9--10-10-10-9-9-9-------|
E|----------------------------------------------|

G|----------------------------------------------|
D|----------------------------------------------|
A|-10-10-10--12/-5------------------------------|
E|----------------------------------------------|
Composição: Green DayColaboração e revisão:
  • Reginaldo Costa

0 comentários

    mostrar mais comentários

    Conseguiu tocar?

    0tocaram0ainda não

    Grave um vídeo tocando Back In The USA e mande pra gente!

    00:00 / 00:00
    outros vídeos desta música
    repetirqualidadeAutomático
    Outro vídeos desta música
      00:00 / 00:00
      Capítulos
      • Tocando a música
      • Apresentação / Afinação
      • TAB - Introdução
      • TAB - Primeira Parte - Parte 1 de 2
      • TAB - Primeira Parte - Parte 2 de 2
      • TAB - Refrão - Parte 1 de 2
      • TAB - Refrão - Parte 2 de 2
      • TAB - Introdução 3 (final)
      • Encerramento
      OK