Cifra Club

Give Me Novacaine

Green Day

Cifra: Principal (violão e guitarra)
exibições 87.217
Tom: A
[Intro]  A  F#m  Bm  E

     A    F#m    Bm     E
E|-9-----5-----10-----4-----------|
B|-10----7-----12-----5-----------|
G|-9-----6-----11-----4-----------|
D|--------------------------------|
A|--------------------------------|
E|--------------------------------|

 A                      F#m
Take away the sensation inside
 Bm                          E
Bitter sweet migraine in my head
A                                        F#m
It's like a throbbing tooth ache of the mind
Bm                       E
I cant take this feeling anymore

  D5                          A5
Drain the pressure from the swelling
  D5                 A5
The sensations overwhelming
 D5                           F#5
Give me a long kiss goodnight and everything will be alright
 B5                          E5
Tell me that i wont feel a thing
                A  F#m  Bm  E
So give me Novacaine

A                       F#m
Out of body and out of mind
 Bm                         E
Kiss the demons out of my dreams
A                          F#m
I get the funny feeling, that's alright
 Bm                        E
Jimmy says its better than air
I'll tell you why

  D5                          A5
Drain the pressure from the swelling
  D5                 A5
The sensations overwhelming
 D5                           F#5
Give me a long kiss goodnight and everything will be alright
B5                           E5
Tell me that i wont feel a thing
                A
So give me Novacaine

Oh Novacaine

      F#m                        A5
E|-------------------------------------------------------------|
B|---------------9-10-10-9--------------------14---------------|
G|----------11-------------11------------14-------14-------14--|
D|----11-11----11-----------------14-14-----14-------14-14-----|
A|-/9-------------------------/12------------------------------|
E|-------------------------------------------------------------|

      Bm                    E
E|-----------------------------------------------------------|
B|----------3---3--------9-9-9-9--10101010-1212121212121212--|
G|------4-----4---4------9-9-9-9--9-9-9-9--9-9-9-9-9-9-9-9---|
D|----4---4---------4----------------------------------------|
A|-/2--------------------------------------------------------|
E|-----------------------------------------------------------|

D5                           A5
Drain the pressure from the swelling
D5                  A5
The sensations overwhelming
D5                            F#5
Give me a kiss goodnight and everything will be alright
B5                         E5
Tell me that I wont feel a thing
               A F#m Bm E
So give me Novacaine

( A  F#m  B  E )

E|----------------------------------------|
B|----10----107----7/12----125----5/------|
G|----------------------------------------|
D|----------------------------------------|
A|----------------------------------------|
E|----------------------------------------|
Acordes para:

    0 comentários

    mostrar mais comentários

    Conseguiu tocar?

    32 tocaram 0 ainda não

    Grave um vídeo tocando Give Me Novacaine e mande pra gente!

    00:00 / 00:00
    outros vídeos desta música
    repetir qualidade Automático
    Outros vídeos desta música
    00:00 / 00:00
    Automático
    OK