Maria

Green Day

Composição de: Billie Joe Armstrong / Green Day
tom: A
INTRODUÇÃO

|--------------------------------------------|
|-7-7-7--------------------------------------|
|-7-7-7--------------------------------------|
|-7-7-7-7-x-x-x-x-x-x-x-x-x-x-x-x-x-x-x-x----|
|-5-5-5-7-x-x-x-x-x-x-x-x-x-x-x-x-x-x-x-x ---|
|-------5-0-0-0-0-0-0-0-0-0-0-0-0-0-0-0-0----|
 
                She smashed the radio with...

|---------------------------------------------|
|--------9-9-9-9-9-9-9-9-9-9-9-9-9-9-9-9------|
|--------9-9-9-9-9-9-9-9-9-9-9-9-9-9-9-9------|
|-7-7-6--9-9-9-9-9-9-9-9-9-9-9-9-9-9-9-9------|
|-7-7-6--7-7-7-7-7-7-7-7-7-7-7-7-7-7-7-7------|
|-5-5-4---------------------------------------|
            Turn up the flame step on...

REFRÃO
|---------------------------------------------------------------------|
|7-7-7-7--5-5-5-5--7-7-7-7--5-5-5-5--7-7-7-7--5-5-5-5--9-9-9-9-9-9-9-9|
|7-7-7-7--6-6-6-6--7-7-7-7--6-6-6-6--7-7-7-7--6-6-6-6--9-9-9-9-9-9-9-9|
|7-7-7-7--7-7-7-7--7-7-7-7--7-7-7-7--7-7-7-7--7-7-7-7--9-9-9-9-9-9-9-9|
|5-5-5-5--7-7-7-7--5-5-5-5--7-7-7-7--5-5-5-5--7-7-7-7--7-7-7-7-7-7-7-7|
|---------5-5-5-5-----------5-5-5-5-----------5-5-5-5-----------------|
Mari.......a...


|----------------------------------------|
|-9--9-9-10--10-10-9------10--10-10------|
|-9--9-9--9---9--9-9--9-9--9---9--9------|
|-9--9-9--7---7--7-9--9-9--7---7--7------|
|-7--7-7--7---7--7-9--9-9--7---7--7------|
|----------------------------------------|
X6

|-0--0-12--10-10--10---------10-10-----------|
|-9-10-12--10-10--10---------10-10-----------|
|--------------------12b-------12b---|
|--------------------------------------------|
|--------------------------------------------|
|--------------------------------------------|
4X
|----4-4-5-5-7-7----4-5--|
|-5-5------------5-7-----|
|------------------------|
|------------------------|
|------------------------|
|------------------------|
1X
 
--------PUNK--IS---DEAD------------------------------------------
--------------FUNK----SOUL----BROTHERS---NA---VEIA--
Página 1 / 1

Letras e título
Acordes e artista

resetar configurações
OK