Cifra Club

Aprenda

When I Come Around

Green Day

Tab de baixo: Versão 2
Versos
G|------------------x----------------|
D|------------------x----------------|
A|-------5-5--x-7-7-3~---------------|
E|-3-3-x------------x---3/4/2/3------|
  
Refrão:
G|--------------------------------------------------|
D|--------------------------------------------------|
A|---------------7-5-3-3-3-----------------7--------|
E|-3-3-3-3-3-3--------------3-3-3-3-3-3-------------|
Composição de Billie Joe Armstrong / Green Day
Colaboração e revisão:
  • Maximo Maxi
  • Victor Moreira
6.171 exibições

0 comentários

Mostrar mais comentários

Conseguiu tocar?

0 Tocaram 0 Ainda não

Grave um vídeo tocando When I Come Around e mande pra gente!

00:00 / 00:00
outros vídeos desta música
repetir qualidade Automático
Outros vídeos desta música
00:00 / 00:00
Automático

Cifra Club Pro

Aproveite o Cifra Club com benefícios exclusivos e sem anúncios
7 dias grátis
Cifra Club Pro
Aproveite o Cifra Club com benefícios exclusivos e sem anúncios
7 dias grátis
OK