Cifra Club

Aprenda

When I Come Around

Green Day

Tab de baixo: Versão 3
começa com guitarra

o baxo entra no meio da passaguem do premeio tempo pro segunto tempo da guitarra....

G-------4/5-5/4-----4/5-5/4-----------------------------
D----5-5-------7-5-5-------7----4/5-5/4---2-2-----------
A---------------------------5-5---------------3---------
E-------------------------------------------------------


Refrão


G-----------------------------------------------5/4------------------
D-----------------------4/6-6/4---------------------------------
A--------------33333333---------4----------3333---------------------
E-----55555555--------------------55555555-------------------------



pós-Refrão

G--------4/5-5/4---------------------------------------
D--5--55---------7----4/5-5/4--2-2----------------------
A------------------5-5------------3---------------------
E-----------------------------------------------------

G-------4/5-5/4-----4/5-5/4-----------------------------
D---5-55-------7-5-5-------7----4/5-5/4---2-2-----------
A---------------------------5-5---------------3---------
E-------------------------------------------------------


eh isso ai galera..... eh facil.... i nois faz.... qualquer duvida fle cmigo....
Composição de Billie Joe Armstrong / Green Day
Colaboração e revisão:
  • Eduardo Santos
4.913 exibições

0 comentários

Mostrar mais comentários

Conseguiu tocar?

0 Tocaram 0 Ainda não

Grave um vídeo tocando When I Come Around e mande pra gente!

00:00 / 00:00
outros vídeos desta música
repetir qualidade Automático
Outros vídeos desta música
00:00 / 00:00
Automático

Cifra Club Pro

Aproveite o Cifra Club com benefícios exclusivos e sem anúncios
7 dias grátis
Cifra Club Pro
Aproveite o Cifra Club com benefícios exclusivos e sem anúncios
7 dias grátis
OK