Cifra Club

Aprenda

Greensleeves

Greensleeves

Cifra: Principal (violão e guitarra)
Tom: F
Primeira parte:

E|----------------------------------------------|
B|----------------------------------------------|
G|-----5-7-8-7-5--------------------------------|
D|-5-8-----------7----5-7-8-5-5----5-7----------|
A|-----------------8-------------8-----8-5------|
E|----------------------------------------------|

E|----------------------------------------------|
B|----------------------------------------------|
G|-----5-7-8-7-5--------------------------------|
D|-5-8-----------7----5-7-8-7-5-4-2-4-5---------|
A|-----------------8----------------------------|
E|----------------------------------------------|

Segunda Parte:

E|----------------------------------------------|
B|----------------------------------------------|
G|-10-10-10-9-7---------------------------------|
D|--------------10-7----5-7-8-5-5----5-7--------|
A|-------------------8-------------8-----8-5----|
E|----------------------------------------------|

E|----------------------------------------------|
B|----------------------------------------------|
G|-10-10-10-9-7---------------------------------|
D|--------------10-7----5-7-8-7-5-4-2-4-5-------|
A|-------------------8--------------------------|
E|----------------------------------------------|
Colaboração e revisão:
  • Erick Lennon
  • Lorena Madeiro
23.696 exibições
    • ½ Tom
    • A
    • Bb
    • B
    • C
    • Db
    • D
    • Eb
    • E
    • F
    • F#
    • G
    • Ab
  • Adicionar à lista

    0 comentários

    Mostrar mais comentários

    Conseguiu tocar?

    13 Tocaram 1 Ainda não

    Grave um vídeo tocando Greensleeves e mande pra gente!

    00:00 / 00:00
    outros vídeos desta música
    repetir qualidade Automático
    Outros vídeos desta música
    00:00 / 00:00
    Automático
    OK