Cifra Club

Aprenda

Night Nurse

Gregory Isaacs

Tab de baixo: Principal
 | / / Am/ / / Am/ / / Am/ / / Am/ | / / G / / / G / / / G / / / G / |
G|---------------------------------|---------------------------------|
D|---------------------------------|---------------------------------|
A|---------7-------------7---7-----|-----------------------5---5-----|
E|-5---------------5---5-------5---|-3---------------3---3-------3---|


A base deste som é essa, podendo ocorrer variação mínima, uma delas é:


 | / / Am/ / / Am/ / / Am/ / / Am/ | / / G / / / G / / / G / / / G / |
G|---------------------------------|---------------------------------|
D|---------------------------------|---------------------------------|
A|---------7-------------7---7-----|---------5-------------5---5-----|
E|-5---------------5---5-------5---|-3---------------3---3-------3---|



Boas vibrações e muita paz!
Composição de Gregory Isaacs / Sylvester Weise
Colaboração e revisão:
  • Dalton Santos
1.699 exibições

0 comentários

Ver todos os comentários

Conseguiu tocar?

1 Tocaram 0 Ainda não

Grave um vídeo tocando Night Nurse e nos envie!

00:00 / 00:00
Outros vídeos desta música
Repetir Qualidade Automático
Outros vídeos desta música
00:00 / 00:00
Automático

Cifra Club Pro

Aproveite o Cifra Club com benefícios exclusivos e sem anúncios
Cifra Club Pro
Aproveite o Cifra Club com benefícios exclusivos e sem anúncios
OK