Cifra Club

Aprenda

Black Smoke Rising

Greta Van Fleet

Tab de baixo: Principal
[Intro]

G|-------------------4h7--|-------------------0-5--|
D|------------------------|------------------------|
A|----7----5----0-5-------|----2----3----0-3-------|
E|------------------------|------------------------|

G|-------------------4h7--|------------------------|
D|------------------------|------------------------|
A|----7----5----0-5-------|----2--2-------3--3--0--|
E|------------------------|------------------------|

[Verso 1]

G|------------------------|------------------------|
D|------------------------|------------------------|
A|----7---5------2---3----|----7---5------2---3----|
E|------------------------|--0---------------------|

G|------------------------|------------------------|
D|------------------------|------------------------|
A|----7---5------2---3----|----7---5------2---3----|
E|--0---------------------|--0---------------------|

[Pré-Refrão 1]

G|------------------------|------------------------|
D|------------------------|------------------------|
A|--0-2-3---3-3-3--0-3--3-|--2---2--2---0--2---2---| (x2)
E|------------------------|------------------------|

G|------------------------|----------4----4--------|
D|------------------------|--------4----4---4------|
A|--0-2-3---3-3-3--0-3-3--|--2---2-------------2---|
E|------------------------|------------------------|

G|------------------------|------------------------|
D|------------------------|------------------------|
A|--0-0-3---3-3-3--0-3--3-|--2---2---3---5---------|
E|------------------------|------------------------|

[Refrão 1]

G|------------------------|---------5----5---------|------------------------|------------------------|
D|------5-----------------|-------5----5---5-------|------5-----------------|-----------------2-3-4-0|
A|----------5--5--5---3---|--0-3-------------3-----|----------5--5--5---3---|--3-3-3---2-3--3--------|
E|--3-----3---------------|------------------------|--3-----3---------------|------------------------|

G|------------------------|---------5----5---------|------------------------|--------5----5-------5--|
D|--5---5-----------------|-------5----5---5-------|------5-----------------|------5----5---5--------|
A|----------5--5--5---3---|--0-3-------------3-----|----------5--5--5---3---|---3-------------3-3---5|
E|--------3---------------|---------------------0-2|--3-----3---------------|------------------------|

[Ponte 1]

G|------------|----9---7----------------|-------------------4h7---|-4-----------------0-5-0-|
D|------------|----------9-7-5----------|-----------------------4-|---4---------------------|
A|------------|--7---------------0-5-7--|----7----5----0-5--------|-----2---3----0-3--------|
E|--0---------|0------------------------|-------------------------|-------------------------|

G|------------------------|
D|------------------------|
A|----7---5------2--2-----|
E|--0---------------------|

[Verso 2]

G|---------------------------0-5--0-|------------------------|
D|----------------------------------|------------------------|
A|----7---5------2---3---0-3--------|----7---5------2---3----|
E|--0-------------------------------|--0---------------------|

G|-----------------4h7---|-4-----------------|
D|---------------------4-|---4---------------|
A|----7---5---0-5--------|-----2----3---3----| (x2)
E|--0--------------------|-------------------|

[Pré-Refrão 2]

G|------------------------|----------4-------------|
D|------------------------|--------4---------------|
A|--0-2-3---3-3-3--0-3--3-|--2---2------0--2---2---| 
E|------------------------|------------------------|

G|------------------------|------------------------|
D|------------------------|------------------------|
A|--0-2-3---3-3-3--0-3--3-|--2---2--2---0--2---2---| 
E|------------------------|------------------------|

G|------------------------|----------4----4--------|
D|------------------------|--------4----4---4------|
A|--0-2-3---3-3-3--0-3--3-|--2---2-------------2---|
E|------------------------|------------------------|

G|------------------------|------------------------|
D|------------------------|------------------------|
A|--0-0-3---3-3-3--0-3--3-|--2---2---3---5---------|
E|------------------------|------------------------|

[Refrão 2]

G|------------------------|---------5----5---------|------------------------|------------------------|
D|------5-----------------|-------5----5---5-------|------5-----------------|-----------------2-3-4-0|
A|----------5--5--5---3---|--0-3-------------3-----|----------5--5--5---3---|--3-3-3---2-3--3--------|
E|--3-----3---------------|---------------------0-2|--3-----3---------------|------------------------|

G|------------------------|---------5----5---------|------------------------|--------5----5-------5--|
D|------5-----------------|-------5----5---5-------|------5-----------------|------5----5---5---5----|
A|----------5--5--5---3---|--0-3-------------3--2-0|----------5--5--5---3---|-0-3-------------3------|
E|--3-----3---------------|------------------------|--3-----3---------------|------------------------|

[Ponte 2]

G|------------|------------|----------14|--12--------------|
D|------------|------------|------------|-----14-12--------|
A|------------|---10-12-12-|--0---------|-------------3-2--|
E|--0---------|------------|------------|------------------|

[Pausa]

G|----------------|----------------|----------------|----------------|
D|-------7---7----|----------------|----------7-----|----------------|
A|0--------7----0-|----------------|0------7------0-|-----3--2--2----|
E|----------------|--0-3--0-3--0---|----------------|----------------|

G|----------------|----------------|----------------|----------------|
D|---------7-7----|----------------|-------7---7----|----------------|
A|0------7------0-|----------------|0--------7----0-|-----3--2--2----|
E|----------------|--0-3--0-3--0---|----------------|----------------|

G|----------------|----------------|----------------|----------------|
D|---------7-7----|----------------|-------7---7----|---7------------|
A|0------7------0-|----------------|0--------7----0-|-----3--2--2----|
E|----------------|--0-3--0-3--0---|----------------|----------------|

G|----------------|----------------|----------------|----------------|
D|---------7-7----|----------------|-------7---7----|----------------|
A|0------7------0-|----------------|0--------7----0-|----------------|
E|----------------|--0-3--0-3--0---|----------------|----------------|

[Interlúdio]

G|---------------------------------------------|-------------------------------------------|
D|10h12-12-12-12-12-12-12-12-12-12-12-12-12-12-|12-9-------12-9-------12-9-----------------|
A|---------------------------------------------|-----12-10------12-10------12-10-----------|
E|---------------------------------------------|---------------------------------12-10-7-5-|

[Refrão 3]

G|------------------------|---------5----5---------|------------------------|------2-5-5-5-5-5-5-5-4-2-0-|
D|------5-----------------|-------5----5---5-------|------5-----------------|----------------------------|
A|----------5--5--5---3---|--0-3-------------3--2-0|----------5--5--5---3---|--0-3-----------------------|
E|--3-----3---------------|------------------------|--3-----3---------------|----------------------------|

G|------------------------|---------5----5---------|------------------------|----------------------------|
D|------5-----------------|-------5----5---5----2-4|--5---5-----------------|----------------------------|
A|----------5--5--5---3---|--0-3-------------3-----|----------5--5--5---3---|--0-3--0-3--0-3-0-3----0-3--|
E|--3-----3---------------|------------------------|--------3---------------|----------------------------|

G|------------------------|---------5---7---7-7-7-5-7-7--|
D|--5---5-----------------|-------5---7---7--------------|
A|----------5--5--5---3---|--0-3-------------------------|
E|--------3---------------|------------------------------|

G|------------------------|---------5---7-7-7-7-7-7-7-7--|
D|--5---5-----------------|-------5---7------------------|
A|----------5--5--5---3---|--0-3-------------------------|
E|--------3---------------|------------------------------|

G|------------------------|---------5---7---7--7--5-7-7--|
D|------5-----------------|-------5---7---7--------------|
A|----------5--5--5---3---|--0-3-------------------------|
E|--3-----3---------------|------------------------------|

G|------------------------|------------------------------|
D|--5---5-----------5-----|-----------0------------------|
A|----------5--5--5---3---|--3--3--3-----3--0------------|
E|--------3---------------|--------------------3--0------|
Composição de Daniel Robert Wagner / Jacob Thomas Kiszka / Joshua Michael Kiszka / Samuel Francis Kiszka
Colaboração e revisão:
  • Taino Vieira
302 exibições

0 comentários

Ver todos os comentários

Conseguiu tocar?

0 Tocaram 0 Ainda não

Grave um vídeo tocando Black Smoke Rising e nos envie!

00:00 / 00:00
Outros vídeos desta música
Repetir Qualidade Automático
Outros vídeos desta música
00:00 / 00:00
Automático

Cifra Club Pro

Aproveite o Cifra Club com benefícios exclusivos e sem anúncios
Cifra Club Pro
Aproveite o Cifra Club com benefícios exclusivos e sem anúncios
OK