Cifra Club

Aprenda

Highway Tune

Greta Van Fleet

Cifra: Guitarra (violão e guitarra)
Tom: A
[Introdução]

E|-----------------------------------------------------|
B|-----------------------------------------------------|
G|-----------------------------------------------------|
D|---2-4b6-2-----2---------2---2---0-------------------|
A|-----------4b6---------------------------------------|
E|-0---------------4p0-0-----4---3---2b----------------|

E|-----------------------------------------------------|
B|-----------------------------------------------------|
G|-----------------------------------------------------|
D|-----2-4b6-2-----2---------2---2---0-----------------|
A|-------------4b6-------------------------------------|
E|-0-----------------4p0-0-----4---3---2b--------------|

E|-----------------------------------------------------|
B|-----------------------------------------------------|
G|-----------------------------------------------------|
D|-----2-4b6-2-----2---------2---2---0-----------------|
A|-------------4b6-------------------------------------|
E|-0-----------------4p0-0-----4---3---2b--------------|

E|-------------------------------0-----0---------------|
B|-----------------------------------------------------|
G|----------------------------/4---4-3---2p0-----------|
D|-----2-4b6-2-----2-------------------------2p0-------|
A|-------------4b6-------------------------------------|
E|-0-----------------4p0-0-----------------------------|

Oh mama

E|-----------------------------------------------------|
B|-----------------------------------------------------|
G|-----------------------------------------------------|
D|---2-4b6-2-----2---------2---2---0-------------------|
A|-----------4b6---------------------------------------|
E|-0---------------4p0-0-----4---3---2b----------------|

E|-----------------------------------------------------|
B|-----------------------------------------------------|
G|-----------------------------------------------------|
D|-----2-4b6-2-----2---------2---2---0-----------------|
A|-------------4b6-------------------------------------|
E|-0-----------------4p0-0-----4---3---2b--------------|

E|-----------------------------------------------------|
B|-----------------------------------------------------|
G|-----------------------------------------------------|
D|-----2-4b6-2-----2---------2---2---0-----------------|
A|-------------4b6-------------------------------------|
E|-0-----------------4p0-0-----4---3---2b--------------|

E|-----------------------------------------------------|
B|-----------------------------------------------------|
G|-----------------------------------------------------|
D|-----2-4b6-2-----2---------2---2---0-----------------|
A|-------------4b6-------------------------------------|
E|-0-----------------4p0-0-----4---3---2b--------------|

[Primeira Parte]

E|-----------------------------------------------------|
B|-----------------------------------------------------|
G|-----------------------------------------------------|
D|-----2-4b6-2-----2---------2---2---0-----------------|
A|-------------4b6-------------------------------------|
E|-0-----------------4p0-0-----4---3---2b--------------|

E|-----------------------------------------------------|
B|-----------------------------------------------------|
G|-----------------------------------------------------|
D|-----2-4b6-2-----2---------2---2---0-----------------|
A|-------------4b6-------------------------------------|
E|-0-----------------4p0-0-----4---3---2b--------------|

No stopping at the red light girl
Because I want to get your signal
No going at the green light girl
Because I want to be with you now

E|-----------------------------------------------------|
B|-----------------------------------------------------|
G|-----------------------------------------------------|
D|-----2-4b6-2-----2---------2---2---0-----------------|
A|-------------4b6-------------------------------------|
E|-0-----------------4p0-0-----4---3---2b--------------|

E|-----------------------------------------------------|
B|-----------------------------------------------------|
G|-----------------------------------------------------|
D|-----2-4b6-2-----2---------2---2---------------------|
A|-------------4b6-------------------------------------|
E|-0-----------------4p0-0-----4---3-3-2---------------|

You are my special
You are my special
You are my midnight
Midnight yeah

[Refrão]

   A
E|------------------------------------------|
B|-------5-5-5-7p5-x-x-5----x-x-5-5-5-------|
G|-------6-6-6-6---x-x-7p6--x-x-6-6-6-------|
D|-------7-7-7-7---x-x-7----x-x-7-7-7-------|
A|-0----------------------------------------|
E|------------------------------------------|

E|------------------------------------------|
B|-5-5-5-7p5-x-x-5----x-x-5-5-5-------------|
G|-6-6-6-6---x-x-7p6--x-x-6-6-6-------------|
D|-7-7-7-7---x-x-7----x-x-7-7-7-------------|
A|------------------------------------------|
E|------------------------------------------|

E|------------------------------------------|
B|-5-5-5-7p5-x-x-5----x-x-5-5-5-------------|
G|-6-6-6-6---x-x-7p6--x-x-6-6-6-------------|
D|-7-7-7-7---x-x-7----x-x-7-7-7-------------|
A|------------------------------------------|
E|------------------------------------------|

E|------------------------------------------|
B|-5-5-5-7p5-x-x-5----x-x-5-5-5-------------|
G|-6-6-6-6---x-x-7p6--x-x-6-6-6-------------|
D|-7-7-7-7---x-x-7----x-x-7-7-7-------------|
A|------------------------------------------|
E|------------------------------------------|

   B
E|------------------------------------------|
B|-7-----7-9p7---7-------7------------------|
G|---8---------8---9p8-----8----------------|
D|-----9---------------9-----9-9------------|
A|------------------------------------------|
E|------------------------------------------|

E|------------------------------------------|
B|-7---7-9p7---7-------7--------------------|
G|---8-------8---9p8-----8------------------|
D|-------------------9-----9-9--------------|
A|------------------------------------------|
E|------------------------------------------|

E|------------------------------------------|
B|-7---7-9p7---7-------7-9p7---7-------7----|
G|---8-------8---9p8-8-------8---9p8-8------|
D|------------------------------------------|
A|------------------------------------------|
E|------------------------------------------|

E|------------------------------------------|
B|-9p7---7-------7-9p7---7------------------|
G|-----8---9p8-8-------8--------------------|
D|------------------------------------------|
A|------------------------------------------|
E|------------------------------------------|

A
  So sweet
So fine
So nice
      B
Oh my
My my
My my
Oh

[Interlúdio]

E|-----------------------------------------------------|
B|-----------------------------------------------------|
G|-----------------------------------------------------|
D|---2-4b6-2-----2---------2---2---0-------------------|
A|-----------4b6---------------------------------------|
E|-0---------------4p0-0-----4---3---2b----------------|

E|-----------------------------------------------------|
B|-----------------------------------------------------|
G|-----------------------------------------------------|
D|-----2-4b6-2-----2---------2---2---0-----------------|
A|-------------4b6-------------------------------------|
E|-0-----------------4p0-0-----4---3---2b--------------|

E|-----------------------------------------------------|
B|-----------------------------------------------------|
G|-----------------------------------------------------|
D|-----2-4b6-2-----2---------2---2---0-----------------|
A|-------------4b6-------------------------------------|
E|-0-----------------4p0-0-----4---3---2b--------------|

E|-----------------------------------------------------|
B|-----------------------------------------------------|
G|-----------------------------------------------------|
D|-----2-4b6-2-----2---------2---2---0-----------------|
A|-------------4b6-------------------------------------|
E|-0-----------------4p0-0-----4---3---2b--------------|

[Segunda Parte]

No stopping on the highway girl
Because I want to burn my gas
There's one girl that I know
I'm never gonna pass

She is my special
She is my special
She is my midnight
Midnight yeah

[Refrão]

A
  So sweet
So fine
So nice
      B
Oh my
My my
My my
Oh

[Solo]

E|-----------------------------------------------------|
B|-14b16---b16-b16-b16-b16-b16-b16-b16-b16-b16-b16-b16-|
G|-14b16---b16-b16-b16-b16-b16-b16-b16-b16-b16-b16-b16-|
D|-----------------------------------------------------|
A|-----------------------------------------------------|
E|-----------------------------------------------------|

E|-----------------------------------------------------|
B|-b16r------------------------------------------------|
G|-b16r14p12--14b16r14p12------------------------------|
D|------------------------14~--------------------------|
A|-----------------------------------------------------|
E|-----------------------------------------------------|

E|-----------------12----------------------------------|
B|------------12------12-15-12-------------------------|
G|-12-14b16--------------------14b16r14p12-------------|
D|-----------------------------------------14----------|
A|-----------------------------------------------------|
E|-----------------------------------------------------|

E|-----------------------------------------------------|
B|-----------------------------------------------------|
G|-12----12h14-12------12------12-14-12---------12-----|
D|----14----------14-------14-----------14--14---------|
A|-----------------------------------------------------|
E|-----------------------------------------------------|

E|-----------------------------------------------------|
B|-------15-15------15---15----------------------------|
G|-/16---------16-----------16\14p12-14-12b14----------|
D|-----------------------------------------------------|
A|-----------------------------------------------------|
E|-----------------------------------------------------|

E|---------------------------12------------------------|
B|------------------------12----12-15-12---------------|
G|-14p12------12-14b16-------------------12-14-12------|
D|-------14---------------------------------------14---|
A|-----------------------------------------------------|
E|-----------------------------------------------------|

E|-------------12----15-15-15----15-15-15----15-15-15--|
B|----------12----12----------12----------12-----------|
G|-12-14b16--------------------------------------------|
D|-----------------------------------------------------|
A|-----------------------------------------------------|
E|-----------------------------------------------------|

E|-------15-15~----------------------------------------|
B|-12-12-----------------------------------------------|
G|-----------------------------------------------------|
D|-----------------------------------------------------|
A|-----------------------------------------------------|
E|-----------------------------------------------------|

[Interlúdio]

E|-----------------------------------------------------|
B|-----------------------------------------------------|
G|-----------------------------------------------------|
D|-----2-4b6-2-----2---------2---2---0-----------------|
A|-------------4b6-------------------------------------|
E|-0-----------------4p0-0-----4---3---2b--------------|

E|-----------------------------------------------------|
B|-----------------------------------------------------|
G|-----------------------------------------------------|
D|-----2-4b6-2-----2---------2---2---0-----------------|
A|-------------4b6-------------------------------------|
E|-0-----------------4p0-0-----4---3---2b--------------|

E|-----------------------------------------------------|
B|-----------------------------------------------------|
G|-----------------------------------------------------|
D|-----2-4b6-2-----2---------2---2---0-----------------|
A|-------------4b6-------------------------------------|
E|-0-----------------4p0-0-----4---3---2b--------------|

E|-------------------------------0-----0---------------|
B|-----------------------------------------------------|
G|----------------------------/4---4-3---2p0-----------|
D|-----2-4b6-2-----2-------------------------2p0-------|
A|-------------4b6-------------------------------------|
E|-0-----------------4p0-0-----------------------------|

Oh yeah

E|-----------------------------------------------------|
B|-----------------------------------------------------|
G|-----------------------------------------------------|
D|---2-4b6-2-----2---------2---2---0-------------------|
A|-----------4b6---------------------------------------|
E|-0---------------4p0-0-----4---3---2b----------------|

E|-----------------------------------------------------|
B|-----------------------------------------------------|
G|-----------------------------------------------------|
D|-----2-4b6-2-----2---------2---2---0-----------------|
A|-------------4b6-------------------------------------|
E|-0-----------------4p0-0-----4---3---2b--------------|

E|-----------------------------------------------------|
B|-----------------------------------------------------|
G|-----------------------------------------------------|
D|-----2-4b6-2-----2---------2---2---0-----------------|
A|-------------4b6-------------------------------------|
E|-0-----------------4p0-0-----4---3---2b--------------|

E|-----------------------------------------------------|
B|-----------------------------------------------------|
G|-----------------------------------------------------|
D|-----2-4b6-2-----2---------2---2---0-----------------|
A|-------------4b6-------------------------------------|
E|-0-----------------4p0-0-----4---3---2b--------------|

[Refrão]

A
  So sweet
So fine
So nice
      B
Oh my
My my
My my
Oh, sugar


[Final]

E|-----------------------------------------------------|
B|-----------------------------------------------------|
G|-----------------------------------------------------|
D|-4b6-------------------------------------------------|
A|-----------------------------------------------------|
E|-----------------------------------------------------|
Colaboração e revisão:
  • Vinícius Dias
2.232 exibições
    • ½ Tom
    • A
    • Bb
    • B
    • C
    • Db
    • D
    • Eb
    • E
    • F
    • F#
    • G
    • Ab
  • Adicionar à lista

    0 comentários

    Mostrar mais comentários

    Conseguiu tocar?

    3 Tocaram 0 Ainda não

    Grave um vídeo tocando Highway Tune e mande pra gente!

    00:00 / 00:00
    outros vídeos desta música
    repetir qualidade Automático
    Outros vídeos desta música
    00:00 / 00:00
    Automático
    Capítulos
    • Tocando a Música
    • Apresentação / Equipamentos
    • Pedais Utilizados
    • Dicas da Música
    • Tocando a Introdução e Primeira Parte
    • Ensinando Riff Principal
    • Acordes Refrão
    • Tocando Refrão
    • Ensinando Refrão
    • Tocando Solo
    • Ensinando Solo - Parte 1 de 5
    • Ensinando Solo - Parte 2 de 5
    • Ensinando Solo - Parte 3 de 5
    • Ensinando Solo - Parte 4 de 5
    • Ensinando Solo - Parte 5 de 5
    • Tocando Solo Lento
    • Encerramento
    OK