Highway Tune

Greta Van Fleet

Composição de: Daniel Robert Wagner / Jacob Thomas Kiszka / Joshua Michael Kiszka / Samuel Francis Kiszka
[Verso 1]

G|-------------------------------|
D|-------------------------------|
A|-------------------------------|  (x1)
E|0-0-0-0-0-0-0-0-0-0--4--3--2--0| 

G|-----------------------------|
D|-----------------------------|
A|-----------------------------|    (x7)
E|0-0-0-0-0-0-0-0-0--4--3--2--0|


[Refrão]

G|----------------------| 
D|----------------5h7---|
A|-------------5h7------|   (x1)
E|4/5--(5)-5--5--------5|

G|------------|
D|--------5h7-|
A|-----5h7----|             (x2)
E|5-5-5------5|

G|--------------|
D|--------5h7---|
A|-----5h7------|           (x1)
E|5-5-5------5/7|

G|--------------|
D|--------------|
A|--------------|           (x1)
E|7--7--7-7-7--7|

G|---------------------|
D|---------------------|
A|---------------------|    (x2)
E|7-7-7-7-7-7--7-7-7--7|

G|-------------------|
D|------------7------|
A|----7---7-9---9-7--|      (x1)
E|(7)---9-----------9|

[Verso 2]

G|-------------------------------|
D|-------------------------------|
A|-------------------------------|  (x1)
E|0-0-0-0-0-0-0-0-0-0--4--3--2--0| 

G|-----------------------------|
D|-----------------------------|
A|-----------------------------|    (x7)
E|0-0-0-0-0-0-0-0-0--4--3--2--0|

[Refrão]

G|----------------------| 
D|----------------5h7---|
A|-------------5h7------|   (x1)
E|4/5--(5)-5--5--------5|

G|------------|
D|--------5h7-|
A|-----5h7----|             (x2)
E|5-5-5------5|

G|--------------|
D|--------5h7---|
A|-----5h7------|           (x1)
E|5-5-5------5/7|

G|--------------|
D|--------------|
A|--------------|           (x1)
E|7--7--7-7-7--7|

G|---------------------|
D|---------------------|
A|---------------------|    (x2)
E|7-7-7-7-7-7--7-7-7--7|

G|-------------------|
D|------------7------|
A|----7---7-9---9-7--|      (x1)
E|(7)---9-----------9|

G|-------------------------------|
D|-------------------------------|
A|-------------------------------|  (x1)
E|0-0-0-0-0-0-0-0-0-0--4--3--2--0| 

G|-----------------------------|
D|-----------------------------|
A|-----------------------------|    (x3)
E|0-0-0-0-0-0-0-0-0--4--3--2--0|

[Ponte]

G|---------------|
D|---------------|
A|---------------|    (x1)
E|x-x-x-x-x-x-x-0|

[Refrão]

G|-------------------------------|
D|-------------------------------|
A|-------------------------------|  (x1)
E|0-0-0-0-0-0-0-0-0-0--4--3--2--0| 

G|-----------------------------|
D|-----------------------------|
A|-----------------------------|    (x3)
E|0-0-0-0-0-0-0-0-0--4--3--2--0|

G|----------------------| 
D|----------------5h7---|
A|-------------5h7------|   (x1)
E|4/5--(5)-5--5--------5|

G|------------|
D|--------5h7-|
A|-----5h7----|             (x2)
E|5-5-5------5|

G|--------------|
D|--------5h7---|
A|-----5h7------|           (x1)
E|5-5-5------5/7|

G|--------------|
D|--------------|
A|--------------|           (x1)
E|7--7--7-7-7--7|

G|---------------------|
D|---------------------|
A|---------------------|    (x2)
E|7-7-7-7-7-7--7-7-7--7|

G|---------------------|
D|---------------------|
A|---------------------|    (x1)
E|7-7-7-7-7-7-7/14\2--0|
Página 1 / 1

Letras e título
Acordes e artista

resetar configurações
OK