Meet On The Ledge

Greta Van Fleet

Composição de: Richard John Thompson
tom: F
[Riff 1]

E|-------------|--6--5---6--5----|
B|-------------|--6--6---6--6----|
G|---3b--------|-----------------| (3x)
D|-------5--3--|-----------------|
A|-------------|-----------------|
E|-------------|-----------------|

E|-------------|--6--5---6------|
B|-------------|--6--6---6------|
G|---b3--------|----------------|
D|-------5--3--|----------------|
A|-------------|----------------|
E|-------------|----------------|

   Dm         C     Dm          C
We used to say that come the day
     Am            G
We'd all be making songs
Bb         F
Or finding better words
Bb          F            C
These ideas never lasted long

Dm           C   Dm         C
The way is up along the road
    Am             G
The air is growing thin
Bb       F
Too many friends who tried
Bb             F                 C
Blown off this mountain with the wind

[Riff 2]

E|------------------|
B|------------------|
G|--5-3-------------|
D|------5-3--1------|
A|--------------1---|
E|------------------|

[Refrão]

C                              Gm
Meet on the ledge, we're gonna meet on the ledge
Bb      F                          C
When my time is up I'll see all my friends
C                              Gm
Meet on the ledge, we're gonna meet on the ledge
Bb            F               C
If you really mean it, it all comes round again

Dm       C    Dm      C
Now I see I'm all alone
Am              G
That's the only way to be
Bb               F
You'll have your chance again
Bb           F               C
Then you can do the work for me

[Riff 2]

E|------------------|
B|------------------|
G|--5-3-------------|
D|------5-3--1------|
A|--------------1---|
E|------------------|

[Refrão]

C                              Gm
Meet on the ledge, we're gonna meet on the ledge
Bb      F                          C
When my time is up I'll see all my friends
C                              Gm
Meet on the ledge, we're gonna meet on the ledge
Bb            F               C
If you really mean it, it all comes round again

[Riff 1]

E|-------------|--6--5---6--5----|
B|-------------|--6--6---6--6----|
G|---b3--------|-----------------| (3x)
D|-------5--3--|-----------------|
A|-------------|-----------------|
E|-------------|-----------------|

E|-------------|--6--5---6------|
B|-------------|--6--6---6------|
G|---b3--------|----------------|
D|-------5--3--|----------------|
A|-------------|----------------|
E|-------------|----------------|

[Solo] Dm  C  Dm  C  Am  G
       Dm  C  Dm  C  Am  G

[Refrão]

C                              Gm
Meet on the ledge, we're gonna meet on the ledge
Bb      F                          C
When my time is up I'll see all my friends
C                              Gm
Meet on the ledge, we're gonna meet on the ledge
Bb            F               C
If you really mean it, it all comes round again

C             Gm                       Bb      F
We're gonna meet on the ledge, on the ledge
                 C
All comes round again
C             Gm         Bb    F    C
We're gonna meet on the ledge
Página 1 / 1

Letras e título
Acordes e artista

resetar configurações
OK