The City Lights

Grey's Anatomy

Tom: Bb (forma dos acordes no tom de A ) Capotraste na 1ª casa
First off, this song is done mainly on piano, so if this sounds
funny to you, that's ok.  I think it sounds great on acoustic
guitar as well.

Capo on 1st fret

Intro
------
E|---0-------------------------0---------------------------------|
B|-----0-------------------------0-------------------------------|
G|----------------4---------------------------4------------------|
D|-------------4-4---4--------------------4-4---4----------------| (4x)
A|-4---------7---------7----------------7---------7--------------|
E|---------7----------------0---------5--------------------------|

Verse
------
E|---------------------------------------------------------------|
B|---------------------------------------------------------------|
G|---------------------------------------------------------------|
D|-----9------9-------6--------6---------------------------------| (3x)
A|-----7------9-------7--------7---------------------------------|
E|---99-9---77-7----00-0-----55-5--------------------------------|


E|---------------------------------------------------------------|
B|---------------------------------------------------------------|
G|---------------------------------------------------------------|
D|-----9------9-------6--------6-------9-------------------------| (1x)
A|-----7------9-------7--------7-------7-------------------------|
E|---99-9---77-7----00-0-----55-5----55-5------------------------|

Chorus (guitar 1)
------

E|-----------------------0---------0-----------------------------|
B|-----------------------0---------4-----------------------------|
G|--8---------8----------6-(strum)-4-(strum)---------------------|
D|--9-(strum)-9-(strum)--6---------4-----------------------------| (4x)
A|--7---------7----------4---------2-----------------------------|
E|--5---------5--------------------------------------------------|
Página 1 / 1

Letras e título
Acordes e artista

resetar configurações
OK