Cifra Club

Aprenda

A llorar a otra parte

Grupo 5

Cifra: Principal (violão e guitarra)
tom: D
intro: D Bm G A / D Bm G Em A

E|----------------------------------------------------------------|
B|-------2-5-3333-2-5-3.--5-3333-2-5-3.------7-88------7-88-------|
G|--22-4--------------------------------77-9------77-7------77-7--|
D|----------------------------------------------------------------|
A|----------------------------------------------------------------|
E|----------------------------------------------------------------|

E|------------|
B|------------|
G|--77-6-4-6--|
D|------------|
A|------------|
E|------------|

E|---------------------------------------|
B|-------2-5-3333-2-5-3.--5-3333-2-5-3.--|
G|--22-4---------------------------------|
D|---------------------------------------|
A|---------------------------------------|
E|---------------------------------------|

E|--------------------------------------------------------|
B|------7-88888-777---------------7-88888-10-10-10-8-7-8--|
G|--7-9-------------999-------7-9-------------------------|
D|--------------------------------------------------------|
A|--------------------------------------------------------|
E|--------------------------------------------------------|

D                       A
Sí, claro que estoy llorando,
                 Bm                                       F#m
es que acaso esperabas que hiciera una fiesta por tu despedida,
                 G                 Bm
aplaudir que te vas destrozando mi vida,
              Em                                       A
y al irte que vaya corriendo a pedirle a Dios que te bendiga,
D                  A
no, no podre perdonarte,
              Bm                                 F#m
apesar que te amo con toda mi alma me obligas a odiarte,
               G                  Bm
hoy te ries de mi, no te duele dejarme,
              Em                                     A
pero vas a volverme a buscar y te juro que voy a vengarme.


                D
Vas a besar el suelo por Dios te lo juro,
            Bm
vendras a pedirme perdon y no dudo,
           G
que mendigaras por un beso a mis labios,
           Em                     A
tu piel rogará que la toquen mis manos,
             D
se que voy gozar cuando vengas llorando,
            Bm
me voy a burlar de ti al verte arrastrando,
            G
te arrepentiras de haberme conocido,
                 Em              A
porque hoy me declaro tu peor enemigo,
               G
y lo que te mereces por abandonarme,
                     A
es que al volver te mande,
                 D
a llorar a otra parte.

*Luego todo igual otraves.

E|-------------------------------------------|
B|--77777-----10-10------10-88888-7---10-10--|
G|--------9-7--------7-9------------9--------|
D|-------------------------------------------| 2x
A|-------------------------------------------|
E|-------------------------------------------|

E|-------7~--9-10-9~--10-9-7~--777--------------------|
B|--7-10---------------------------10h12-12-12-10h12--|
G|----------------------------------------------------|
D|----------------------------------------------------| 2x
A|----------------------------------------------------|
E|----------------------------------------------------|

Y ya esta...
Bueno solo eso, y que viva la musica de calidad nacional...XD
Hasta la proxima.
Composição de Hermanos Yaipen
4 exibições
    • ½ Tom
    • A
    • Bb
    • B
    • C
    • Db
    • D
    • Eb
    • E
    • F
    • F#
    • G
    • Ab
  • Adicionar à lista

    0 comentários

    Ver todos os comentários

    Conseguiu tocar?

    0 Tocaram 0 Ainda não

    Grave um vídeo tocando A llorar a otra parte e nos envie!

    00:00 / 00:00
    Outros vídeos desta música
    Repetir Qualidade Automático
    Outros vídeos desta música
    00:00 / 00:00
    Automático

    Cifra Club Pro

    Aproveite o Cifra Club com benefícios exclusivos e sem anúncios
    Cifra Club Pro
    Aproveite o Cifra Club com benefícios exclusivos e sem anúncios
    OK