Cifra Club

Aprenda

Me enamoré de tí

Grupo 5

Cifra: Principal (violão e guitarra)
tom: Fm
INTRO:
           F               Dm
E|----------------------------------|
B|----------------------------------|
G|--------2-2-----------------------|
D|-3-3-3-3---3-3-----3-3-3-3-2-2-3--|
A|--------------------------------1-|
E|----------------------------------|
   Gm                                  C7
e|5-5-3-1----------9-10-8-7-3-3--6-5-3----3-5-6-5-3-8-8-6-8-8-6-8
B|-------3-3--------------------------10------------------------|
G|-------------0-----------------------------------------------|
D|----------0-2-0| -----------------------------------------------
A|-------------------------------------------------------------|
E|-------------------------------------------------------------|


               Fm                      Bbm
Que locura quererte, como te estoy queriendo
              Eb                   Ab    Gm
me parece mentira, pero no me arrepiento
                   Fm                    Bbm
tu me vuelves tan loco y lo peor soy consiente
                    Fm    Db                C7
que he caido en tu trampa como el más inocente.

coro:
               F
Me enamoré de ti ¿y que?
                  Dm
me enloqueció tu piel ¿y que?
           Bb               C
me arrodillé a tu amor imposible.

              F
Me enamoré de ti ¿y que?
                   Dm
yo me enfermé de amor ¿y que?
          Bb                   C7
ciego por ti, pido que no me olvides.


Instrumental: F Dm Gm C7

                Fm                     Bbm
Que locura quererte, como te estoy queriendo
                Eb                     Ab  Gm
y si soy tu capricho, no me importa saberlo
                     Fm                  Bbm
te haz metido en mi vida, me consumes el aire
              Fm   Db                 C7
corazón peligroso no me importa quemarme.

Repetir coro

Instrumental:F Dm Gm C7

Repetir coro

Instrumental:F Dm Gm C7

Y AL FINAL TIENE UN ARDG LILLO MASOMENOS AB ...


E|-----------| -1---------------
B|----------| -1----------------
G|---------| 0------------------
D|--3-3-3-3-| 3-----------------
A|---------------------------|
E|---------------------------|
Compositor não encontrado.
5 exibições
    • ½ Tom
    • Am
    • Bbm
    • Bm
    • Cm
    • C#m
    • Dm
    • Ebm
    • Em
    • Fm
    • F#m
    • Gm
    • G#m
  • Adicionar à lista

    0 comentários

    Ver todos os comentários

    Conseguiu tocar?

    0 Tocaram 0 Ainda não

    Grave um vídeo tocando Me enamoré de tí e nos envie!

    00:00 / 00:00
    Outros vídeos desta música
    Repetir Qualidade Automático
    Outros vídeos desta música
    00:00 / 00:00
    Automático

    Cifra Club Pro

    Aproveite o Cifra Club com benefícios exclusivos e sem anúncios
    Cifra Club Pro
    Aproveite o Cifra Club com benefícios exclusivos e sem anúncios
    OK