Cifra Club

Aprenda

Quien Cura

Grupo 5

Cifra: Principal (violão e guitarra)
tom: Bb
intro: Bb F Eb Bb F

E|----------------------------------------------------------|
B|--6-------3-6.--6-------4-6.--6-------3-4.--4-3-----------|
G|----3-3-3---------5-5-5---------3-3-3-----------5-5-3-5~--|
D|----------------------------------------------------------|
A|----------------------------------------------------------|
E|----------------------------------------------------------|

E|-----------------------------------------------------------------|
B|--6-8-6.-66-8-6.--6-8-8.-66-8-6.--4-6-4.-44-6-4.--3-3-3----------|
G|--------------------------------------------------------55-4-5~--|
D|-----------------------------------------------------------------| 2x
A|-----------------------------------------------------------------|
E|-----------------------------------------------------------------|

         Bb                                      F
Te dejo libre, para que busques como dices tu destino,
         Eb                                            Bb
te dejo libre, no quiero ser piedra ni estorbo en tu camino,
                                                       F
no es tan fácil, desprenderme de lo que tanto y tanto quiero,
          Eb                                           Bb
pero que duele, cuando te arrancan el corazon quedas desecho,
           F
oscuro y desierto.

      Bb                        F
Quien cura el corazon, quien lo cura,
           Eb                          F
cuando de amor quedas herido, no hay alivio que tortura,
      Bb                        F
Quien cura el corazon, quien lo cura,
          Eb                       F
no hay doctor ni medicina, solo un oceano de dudas,
      Bb                        F
Quien cura el corazon, quien lo cura,
     Eb              F               Bb
solo ella si regresa, calmara este dolor.
Composição de Estanis Mogollon
    • ½ Tom
    • A
    • Bb
    • B
    • C
    • Db
    • D
    • Eb
    • E
    • F
    • F#
    • G
    • Ab
  • Adicionar à lista

    0 comentários

    Ver todos os comentários

    Conseguiu tocar?

    0 Tocaram 0 Ainda não

    Grave um vídeo tocando Quien Cura e nos envie!

    00:00 / 00:00
    Outros vídeos desta música
    Repetir Qualidade Automático
    Outros vídeos desta música
    00:00 / 00:00
    Automático

    Cifra Club Pro

    Aproveite o Cifra Club com benefícios exclusivos e sem anúncios
    Cifra Club Pro
    Aproveite o Cifra Club com benefícios exclusivos e sem anúncios
    OK