Cifra Club

Aprenda

Ya se ha muerto mi abuelo

Grupo 5

Cifra: Principal (violão e guitarra)
tom: Dm
Intro: Dm - A / C - Dm

E|---------------------------|
B|-------------10------------|
G|------10---10----9-12------| x3
D|----12---12----------12----|
A|---------------------------|
E|---------------------------|

E|---------------------------|
B|---------------------------|
G|----10---10---9-12---------| x4
D|--12---12--10-----12-------|
A|---------------------------|
E|---------------------------|

E|---------------------------|
B|------------13-------------|
G|----10---10-----9-12-------|
D|--12---12-----------12-----|
A|---------------------------|
E|---------------------------|

E|--9h10-9h10-9h10-(x7)-10---|
B|---------------------------|
G|---------------------------|
D|---------------------------|
A|---------------------------|
E|---------------------------|
Composição de Juaneco
1 exibições
    • ½ Tom
    • Am
    • Bbm
    • Bm
    • Cm
    • C#m
    • Dm
    • Ebm
    • Em
    • Fm
    • F#m
    • Gm
    • G#m
  • Adicionar à lista

    0 comentários

    Ver todos os comentários

    Conseguiu tocar?

    0 Tocaram 0 Ainda não

    Grave um vídeo tocando Ya se ha muerto mi abuelo e nos envie!

    00:00 / 00:00
    Outros vídeos desta música
    Repetir Qualidade Automático
    Outros vídeos desta música
    00:00 / 00:00
    Automático

    Cifra Club Pro

    Aproveite o Cifra Club com benefícios exclusivos e sem anúncios
    Cifra Club Pro
    Aproveite o Cifra Club com benefícios exclusivos e sem anúncios
    OK