Cifra Club

Viverei, Viverás

Grupo Nova Dimensão

Cifra: Principal
exibições 13.153
Tom: E
Intro: E B E

      E                B            E
No momento em que aceitei ao meu Jesus
      C#m       G#m      F#m  B7
Minha vida logo se modificou
F#m          B7  F#m           B7
Encontrei a paz, encontrei o amor
   F#m         B7            E    A/B
E hoje já não tenho mais rancor

      E          B         E
Aprendi amar o próximo também
    C#m        G#m         F#m   B7
Perdoar aquele que me ofendeu
F#m       B7   F#m        B7
Deus ama você, eu amo também
F#m                  B7           E            E7
Por isso é que eu estou sempre a cantar, a cantar

    A7+      B/A                         G#m
Estarás com Cristo meu senhor sempre a andar
     C#m         C#m/B      F#m
Com Cristo eu aprendi a perdoar
     B                      E        E7
Com Cristo para sempre viverei, viverás

    A7+    B/A                    G#m
E você que anda nesse mundo sem razão
  C#m        C#m/B        F#m
Aprenda a perdoar o seu irmão
     E        B
Viverei, viverás

E  B  E  C#m  G#m  F#m  B
Na - na - na - na - na - na - na- na - na - na - na [2x]

F#m       B7   F#m        B7
Deus ama você, eu amo também
F#m                  B7           E            E7
Por isso é que eu estou sempre a cantar, a cantar

    A7+      B/A                         G#m
Estarás com Cristo meu senhor sempre a andar
     C#m         C#m/B      F#m
Com Cristo eu aprendi a perdoar
     B                      E        E7
Com Cristo para sempre viverei, viverás

    A7+    B/A                    G#m
E você que anda nesse mundo sem razão
  C#m        C#m/B        F#m
Aprenda a perdoar o seu irmão
     E        B
Viverei, viverás

Solo:

E|------------------------------12b-14-12-12-12-15b-16-15-14-----------------12b-14-12-----------|
B|------------------------9-12--------------------------------------9-10-12------------9-10-9-10---|
G|---11b-13-11-9-9-11------------------------------------------------------------------------------|
D|-------------------------------------------------------------------------------------------------|
A|-------------------------------------------------------------------------------------------------|
E|-------------------------------------------------------------------------------------------------|

E|--------------------------------------------------------|
B|---11b-12-10-9------------------------------------------|
G|---------------------11-9-11-9-11b-13-11b-13-11-9-------|
D|--------------------------------------------------------|
A|--------------------------------------------------------|
E|--------------------------------------------------------|


    A7+    B/A                    G#m
E você que anda nesse mundo sem razão
  C#m        C#m/B        F#m
Aprenda a perdoar o seu irmão
     E        B
Viverei, viverás


E  B  E  C#m  G#m  F#m  B
Na - na - na - na - na - na - na- na - na - na - na

E B E
Acordes para:
    Colaboração e revisão:
    • welington gomes
    • Danielson Erik
    • Hitalo Tavares

    0 comentários

      mostrar mais comentários

      Conseguiu tocar?

      1tocaram0ainda não

      Grave um vídeo tocando Viverei, Viverás e mande pra gente!

      00:00 / 00:00
      outros vídeos desta música
      repetirqualidadeautomática
      Outro vídeos desta música
        00:00 / 00:00
        automática
        OK