Cifra Club

Sem Argumentos

Grupo Tá Na Mente

Cifra: Principal (violão e guitarra)
Tom: A
Intro: C#m7 C9 D9 E9
Solo Intro:
Parte (1)
E|------------------------------------------|
B|------------------------------------------|
G|------------------------------------------|
D|--9-9-7-7-6-------------------------------|
A|------------9-7-6-7-7---------------------|
E|------------------------------------------|

Parte(2)
E|------------------------------------------|
B|------------------------------------------|
G|------------------------------------------|
D|--9-9-7-7-6-------------------------------|
A|------------9-7-5-7-7-3-5-7-9-9-----------|
E|------------------------------------------|

Parte(3)
E|-12-11-11-9-9-7-7-5-5---------------------|
B|------------------------------------------|
G|------------------------------------------|
D|------------------------------------------|
A|------------------------------------------|
E|------------------------------------------|

 E
Sei que não vai ser fácil
  C#m7
Conviver sem teu abraço
       A
Sem o teu calor
       
Sem o teu amor


 E
Eu já entreguei os pontos
    C#m7
Fui inconsequente e fraco
     A
Eu perdi você
      Am6
Eu paguei pra ver


       C#m7
Não te ouvi
   B9
Permiti
   A9
Me seduzir

Por outro alguém


   C#m7
Quantas noites
      B9          A9
Que eu vi você chorar

E|---------------|
B|---------------|
G|---------------|
D|---------------|
A|-----2---------|
E|--4------------|

  C#m7
Te perdi
   B9                         A9
Mereci sentir a dor em seu lugar
  G#m7    F#m7        E          B9
E, arrependido sem a chance de voltar


Refrão:
  A9
Eu choro

Toda a vez que eu vejo você
       G#m7
Eu atravesso a rua pra me esconder

 F#m7
Me dói

Saber que nunca mais vou te tocar
      C#m7         D#
Porque já não vejo amor no seu olhar

 A9
Eu choro

Passa o filme do que me falou
      G#m7
Que quando eu te perdesse iria dar valor

  F#m7                    G#m7
E vejo o quanto fiz pra te desmerecer
       A9            B9         E
E não tenho argumentos pra te convencer

(Ao Acabar o Refrão Faça o Solo , Sem Fazer a Parte - 3 )

  Final: C9 D9 E9
E|---------------------------|
B|---------------------------|
G|---------------------------|
D|---------------------------|
A|-5-7-7-3-5-7-9-9-----------|
E|---------------------------|

Parte(3)
E|-12-11-11-9-9-7-7-5-5------|
B|---------------------------|
G|---------------------------|
D|---------------------------|
A|---------------------------|
E|---------------------------|
exibições 4.180
Acordes para:
    Composição: Davi Vianna / Rony Lucio Colaboração e revisão:
    • Rafinha Nascimento

    0 comentários

    mostrar mais comentários

    Conseguiu tocar?

    2 tocaram 0 ainda não

    Grave um vídeo tocando Sem Argumentos e mande pra gente!

    00:00 / 00:00
    outros vídeos desta música
    repetir qualidade Automático
    Outros vídeos desta música
    00:00 / 00:00
    Automático
    OK