Lift Me Up

Guardian

Composição de: Jamie Rowe
tom: E Afinação: E A D G B E
G# B G# B
E-------------------------------
B--------7-------------7--------
G-----6-----6-------6-----6-----
D-4------------4-4-----------4--
A-------------------------------
E-------------------------------

G#
Once I was alone
B
Some mistakes in my past 
G#
Had left me living on my own
My only prayer
B 
Was the fait of my past
F#
I wondered if you were still there
B F# 
I was hiding in the shadowlands
B G# 
Scared to admit I was a broken man
Now I'm missing you
B
Every thought every word everything 
G# 
Leads me back to you
Can you forgive me
B
Just a touch of your hand 
F#
And I'll know that your love is true
B F#
I surrender all I've kept from you 
B G#
Lord I'll do anything to be with you
Reach out your hand 
B
Lift me up from this place I have fallen
G#
Lift me up
Reach out your hand 
B 
Lift me up from this place I have fallen
G# A# B C#
Lift me up
G# A# B C#
Lift me

Solo:
E---------------------------------------------------------------------
B---------------------------------------------------------------------
G---------------------------------------------------------------------
D-6/8--6-6-8-9-9-16-13-11--7-9-7-9-7-9-7-8-6/16-16-16-16-16-13-16-18--
A---------------------------------------------------------------------
E---------------------------------------------------------------------

B F#
And I surrender all I am to you          E----------- 
B G#                                     B-----------
Lord I'll do anything to be with you     G----------- 
                                         D-6/8-9-8-9- 
Reach out your hand                      A----------- 
B                                        E-----------
Lift me up from this place I have fallen
G#
Lift me up
Reach out your hand 
B 
Lift me up from this place I have fallen
G# A# B C#
Lift me up
G# A# B C#
Lift me up
G# A# B C#
Lift me up
G# A# B C#
Lift me
Página 1 / 1

Letras e título
Acordes e artista

resetar configurações
OK