Cifra Club

Aprenda

Por Cima Das Nuvens

Gui Monteiro

Cifra: Principal (violão e guitarra)
tom: G
[Riff]

E|-----------------------------------------------------|
B|---------0-------------------------------------------|
G|-0h2--------------0h2-----0--------0--0--------------|
D|---------------0----------------0--0--0-----0--------|
A|------------x----------------------x-----------------|
E|-3----3-----x-----3----3-----3-----x-----3-----------|

E|-----------------------------------------------------|
B|---------0-------------------------------------------|
G|-0h2--------------0h2-----0--------0--0--------------|
D|---------------0----------------0--0--0-----0--------|
A|------------x----------------------x-----------------|
E|-3----3-----x-----3----3-----3-----x-----3-----------|

E|-----------------------------------------------------|
B|------------------3----------------------------------|
G|---------0------------------------0--0---------------|
D|-0/2-----------2-----2---------2--2--2-----2---------|
A|-3----3-----x-----3-----3---------x-----3------------|
E|------------x---------------------x------------------|

E|------------------0----------------------------------|
B|----------------------------------0------------------|
G|---------0------------------------0------------------|
D|-0/2-----------2---------2-----2--2------------------|
A|-3----3-----x-----3---------3-----x------------------|
E|------------x---------------------x------------------|

[Primeira Parte]

  G9
Você já viu o céu
              C7M
Por cima das nuvens?
  G9
Dali o vento traz
              C7M
A paz que te faz lembrar

        G9
Que o caminho é sinuoso

E se a gente entrega o jogo
     C7M
Não chega lá
    G9
Acredite na tua essência

Mesmo com advertências
 C7M
Saiba arriscar

     Am7         C     D9(11)
E no fundo você sabe

[Refrão]

    G9          C7M
Não há longe que não se possa chegar
    G9              C7M
Não há tão alto que não vale a pena escalar

  G9
É bom não esquecer
                C7M
Que a vida não para
      G9
Se a trilha escurecer
          C7M
Siga a jornada

       G9
Já que nós sempre podemos

Nos lembrar do que aprendemos
       C7M
Pra que parar?
    G9
Aproveite a caminhada

Viva todas as etapas
    C7M
Você vai gostar

     Am7         C     D9(11)
E no fundo você sabe

[Refrão]

    G9          C7M
Não há longe que não se possa chegar
    G9              C7M
Não há tão alto que não vale a pena escalar

G9            C7M
Você já viu o céu
                G9
Por cima da nuvens
Composição de Gui Monteiro
Colaboração e revisão:
  • Guilherme Monteiro
1 exibições
    • ½ Tom
    • A
    • Bb
    • B
    • C
    • Db
    • D
    • Eb
    • E
    • F
    • F#
    • G
    • Ab
  • Adicionar à lista

    0 comentários

    Ver todos os comentários

    Conseguiu tocar?

    0 Tocaram 0 Ainda não

    Grave um vídeo tocando Por Cima Das Nuvens e nos envie!

    00:00 / 00:00
    Outros vídeos desta música
    Repetir Qualidade Automático
    Outros vídeos desta música
    00:00 / 00:00
    Automático

    Cifra Club Pro

    Aproveite o Cifra Club com benefícios exclusivos e sem anúncios
    Cifra Club Pro
    Aproveite o Cifra Club com benefícios exclusivos e sem anúncios
    OK