Cifra Club

Aprenda

É Pra Sempre Te Amar

Guilherme & Santiago

Cifra: Principal (violão e guitarra)
tom: A
Verso:
A        A9/C#          D9          E4 E
Me lembro bem do dia, a hora e o lugar
 Bm           A9/C#       D E4 E
que eu fiquei ligado em você
A       A9/C#          D9          E4 E
Me aventurei mas não quis me arriscar
Bm                  E4 E
eu só pensei no prazer


A        A9/C#          D9       E4 E
Logo depois vi que era tarde demais
Bm         A9/C#       D E4 E
pra tentar fugir de você
A        A9/C#          D9        E4 E
Eu me envolvi não consegui disfarçar
      Bm              E4 E
e o impossível aconteceu


F#m       E/G#    A9           Bm7
Mas se meu destino te pôs no meu caminho
A9/C#         D9         E4 E
meus Deus quem sou eu pra evitar


refrão:
A
Hoje eu quero ser teu homem
E/G#   F#m                     E  D9
te dar     até meu sobrenome apagar
             A9/C#      Bm7           E4     E
de vez o teu passado escrever um futuro do meu lado
  A
E aceite apenas um pedido
E/G#  F#m
e  vem então viver comigo
E   D9           A9/C#       Bm      E4  E        (A  A4 A A9)
eu juro que o melhor que eu posso te dar  é pra sempre te amar


Verso:
A        A9/C#           D         E4  E
Eu que lutei pra me impedir de gostar
      Bm        A9/C#      D   E4 E
no primeiro beijo eu me perdi
A       A9/C#   D9        E4  E
Daquele exato momento pra cá
Bm                    E4  E
eu já não mandava em mim



  F#m       E/G#    A9           Bm7
Mas se meu destino te pôs no meu caminho
     A9/C#         D9         E4 E
meus Deus quem sou eu pra evitar


Refrão:
A
Hoje eu quero ser teu homem
E/G#   F#m                     E  D9
te dar     até meu sobrenome apagar
              A9/C#      Bm7           E4     E
de vez o teu passado escrever um futuro do meu lado
   A
E aceite apenas um pedido
E/G#  F#m
e    vem então viver comigo
E   D9              A9/C#       Bm        E4  E     (A)
eu juro que o melhor que eu posso te dar  é pra sempre te amar


 Solo: A   A9/C# Bm A  G F#m   E  F#

E|-----------------------|
B|-14h15-15/17----17-----|
G|-------------19--------|
D|-------------------19~-|
A|-----------------------|
E|-----------------------|

E|-----------------------------|
B|-14h15-15/17----17-----------|
G|-------------19--------------|
D|-------------------19~--16~--|
A|-----------------------------|
E|-----------------------------|

E|----------------------------|
B|----------------------------|
G|-16h18-18/19-18-16----------|
D|-------------------19~-16~--|
A|----------------------------|
E|----------------------------|

E|-------------------------------------------------|
B|-------------------------------------------------|
G|-16h18-18/19-18-16-----16-16h18-16---------/19~--|
D|-------------------19~-------------14~-----------|
A|-------------------------------------------------|
E|-------------------------------------------------|


Refrão:
B
Hoje eu quero ser teu homem
F#/B   G#m                     F#  E
te dar     até meu sobrenome apagar
      B/Eb      C#m7           F#4     F#
de vez o teu passado escrever um futuro do meu lado
    B
E aceite apenas um pedido
F#/B   G#m
e   vem então viver comigo
F#  E              B/Eb       C#m7           F#4     F#
eu juro que o melhor que eu posso te dar  é pra sempre te amar
Composição de Feio
Colaboração e revisão:
148.831 exibições
    • ½ Tom
    • A
    • Bb
    • B
    • C
    • Db
    • D
    • Eb
    • E
    • F
    • F#
    • G
    • Ab
  • Adicionar à lista

    0 comentários

    Ver todos os comentários
    00:00 / 00:00
    outros vídeos desta música
    repetir qualidade Automático
    Outros vídeos desta música
    00:00 / 00:00
    Automático

    Cifra Club Pro

    Aproveite o Cifra Club com benefícios exclusivos e sem anúncios
    Cifra Club Pro
    Aproveite o Cifra Club com benefícios exclusivos e sem anúncios
    OK