Mágia e mistério

Guilherme & Santiago

Composição de: BoB / Joe
tom: E
[Intro] F#m  A  E  E  F#m  A  E  E
   
F#m                  A                    E
Sob a luz do seu olhar se esconde um mistério
Eu falo sério!

Riff 1
E|-----------|
B|-----------|
G|-----------|
D|-----------|
A|-----------|
E|-0-1-2-----|

F#m           A                       E     
Todo dia te amar é tudo que eu mais quero
Eu falo sério!
C#m                   G#m
Toda essa magia que existe em você
C#m                   G#m
Me deixou vidrado, alucinado... sem querer
            F#m
Não deu pra segurar
             B7
Eu fui me apaixonar
    C#m  
Por você!

Riff 2
E|-----------------------|
B|-----------------------|
G|-----------------------|
D|-----------------------|
A|----6--4----6--4-------|
E|---------4--------4~---|

F#m                  A                    E
Sob a luz do seu olhar se esconde um mistério
Eu falo sério!

Riff 1
E|-----------|
B|-----------|
G|-----------|
D|-----------|
A|-----------|
E|-0-1-2-----|

F#m           A                       E     
Todo dia te amar é tudo que eu mais quero
Eu falo sério!

C#m                   G#m
Sem você comigo já não sei o que fazer
C#m                   G#m
Meu desejo é ter seus beijos...todo seu prazer
              F#m
Não deu pra segurar
           B7
Fui me apaixonar
 C#m    C#m G#m C#m G#m 
Por você!

Riff 2
E|-----------------------|
B|-----------------------|
G|-----------------------|
D|-----------------------|
A|----6--4----6--4-------|
E|---------4--------4~---|

F#m                  A                    E
Sob a luz do seu olhar se esconde um mistério
Eu falo sério!

Riff 1
E|-----------|
B|-----------|
G|-----------|
D|-----------|
A|-----------|
E|-0-1-2-----|

F#m           A                       E     
Todo dia te amar é tudo que eu mais quero
Eu falo sério!

[Solo]

F#m           A                       E     
Todo dia te amar eu quero...Eu falo sério!!
F#m           A                       E     
Todo dia te amar eu quero...Eu falo sério!! 

( F#m  A  E  F#m  A  E )

E|---5/7-9-7-5-----5-7-7/9-7-5-----5-7-5-7-5-7-5| (1x)
B|--------------7-------------7-------------7---|
G|----------------------------------------------|
D|----------------------------------------------|
A|----------------------------------------------|
E|----------------------------------------------|

E|---5/7-9-7-5-----5-7-7/9-7-5------5-7/9-9-----| (1x)
B|--------------7-------------7-----------------|
G|----------------------------------------------|
D|----------------------------------------------|
A|----------------------------------------------|
E|----------------------------------------------|
Página 1 / 1

Letras e título
Acordes e artista

resetar configurações
OK