Cifra Club

Só de Você

Guilherme & Santiago

Cifra: Principal (violão e guitarra)
exibições 225.017
Tom: C
(intro) D A Bm G A D

E|-3--1--------------------------------0-0h1--0h1p0---------------|
B|-5--3---5--3---6--5---0-0h1-111-3------------------3-3--1h3-1---|
G|--------5--4---7--5---0-0h2-------------------------------------|
D|----------------------------------------------------------------|
A|----------------------------------------------------------------|
E|----------------------------------------------------------------|

  D              A               Bm
Outra noite nós dois e desejo no ar
                G           A      D
Cada beijo que rola faz o mundo parar
                   A                   Bm
E eu só penso em você com a força do coração
                  G             A         D   A  D
Cada minuto que passa aumenta a minha paixão

          A             Bm                 G   D
Você me faz sonhar e acordar flutuando no céu
           A             Bm                    A   D
E eu só sei te amar o nosso amor é uma lua de mel

                 A                     Bm
E pode o céu desabar e a terra toda tremer
                      G         A            D
Que eu jamais vou deixar de te amar, te querer
                    A               Bm
Enquanto a lua brilhar e o sol aparecer (2x)
                 G              A       D
Juro que o meu coração vai ser só de você

(intro)
E|-3--1--------------------------------0-0h1--0h1p0---------------|
B|-5--3---5--3---6--5---0-0h1-111-3------------------3-3--1h3-1---|
G|--------5--4---7--5---0-0h2-------------------------------------|
D|----------------------------------------------------------------|
A|----------------------------------------------------------------|
E|----------------------------------------------------------------|

          A             Bm                  G  D
Você me faz sonhar e acordar flutuando no céu
       A                Bm                     A  D
E eu só sei te amar o nosso amor é uma lua de mel

                A                     Bm
E pode o céu desabar e a terra toda tremer
                      G         A          D
Que eu jamais vou deixar de te amar, te querer
                 A               Bm
Enquanto a lua brilhar e o sol aparecer (2x)
                   G           A        D
Juro que o meu coração vai ser só de você
                A                      Bm
E pode o céu desabar e a terra toda tremer
                     G           A         D
Que eu jamais vou deixar de te amar, te querer
                 A                Bm
Enquanto a lua brilhar e o sol aparecer (2x)
                  G            A      D
Juro que o meu coração vai ser só de você
        A       D
Vai ser só de você
        A       D
Vai ser só de você
Acordes para:

    0 comentários

    mostrar mais comentários

    Conseguiu tocar?

    6 tocaram 0 ainda não

    Grave um vídeo tocando Só de Você e mande pra gente!

    00:00 / 00:00
    outros vídeos desta música
    repetir qualidade Automático
    Outros vídeos desta música
    00:00 / 00:00
    Automático
    OK