Cifra Club

Knights Of Cydonia

Guitar Hero

Cifra: Principal
exibições 34.365
Tom: D
Intro :

E|-------------------------|| 
B|-------------------------|| 
G|-------------------------|| 
D|-------------------------|| x4 
A|-------------------------|| 
E|-0----2--3----5--5--7----|| 
 
Overdub on 3rd and 4th Intro. The rhythm isn´t bang on but you get the idea.

   PM PM PM    PM  PM  PM PM PM
E|--------------------------------| 
B|--------------------------------| 
G|--------------------------------| 
D|--------------------------------| 
A|-7--9--10----12--10--9--7--6----|  
E|--------------------------------| 

   PM
E|------------------| 
B|------------------| 
G|------------------| 
D|------------------| 
A|------------------| 
E|-19/////////////0-| 
 
E|-0----| 
B|-0----| 
G|-0----| 
D|-2----| 
A|-2----| 
E|-0----| 
  
E|---------------------------------------|--------------------------------------| 
B|---------------------------------------|--------------------------------------| 
G|---------------------------------------|--------------------------------------| 
D|-5---4--2--0-----2--4--5----4--2--0----|-1----2--4--2---5--7--8----7--8--9----| 
A|---------------------------------------|--------------------------------------| 
E|---------------------------------------|--------------------------------------| 
 
E|----------------|----------------|----------------|----------------------| 
B|----------------|----------------|----------------|----------------------| 
G|-8---5--0--7----|-8---7--5--3----|-7---5--3--5----|-3--1--3----4----5----| 
D|----------------|----------------|----------------|----------------------| 
A|----------------|----------------|----------------|----------------------| 
E|----------------|----------------|----------------|----------------------| 
 
   PM   PM  PM PM    PM PM  PM   PM  PM PM     PM  PM PM  PM   PM  PM  PM   PM  PM  PM
E|-11---10--8--6---|-8--10--11---10--8--6----|-7---8--10--8--|-11--13--14---13--14--15----| 
B|-----------------|-------------------------|---------------|----------------------------| 
G|-----------------|-------------------------|---------------|----------------------------| 
D|-----------------|-------------------------|---------------|----------------------------| 
A|-----------------|-------------------------|---------------|----------------------------| 
E|-----------------|-------------------------|---------------|----------------------------| 

   PM  PM  PM PM     PM  PM PM PM      PM  PM PM PM    PM PM PM   PM   PM
E|-19--16-----18---|-19--18-16-14---|--18--16-14-16--|-14-12-14---15---16----| 
B|---------16------|----------------|----------------|-----------------------| 
G|-----------------|----------------|----------------|-----------------------| 
D|-----------------|----------------|----------------|-----------------------| 
A|-----------------|----------------|----------------|-----------------------| 
E|-----------------|----------------|----------------|-----------------------| 
 
I think the actual singing part is just bass. 
Play each note for a bar in that galloping style. 

G|--------------------------|--------------------------| 
D|--------------------------|--------------------------| 
A|-----2--7--2--6--7-----2--|-----2--3-----2--3-----2--| 
E|--4-----------------3-----|--0--------3--------3-----| 
 
E|--0--| 
B|--0--| 
G|--0--| 
D|--2--| 
A|--2--| 
E|--0--| 
 
Back to Intro 

E|-------------------------|| 
B|-------------------------|| 
G|-------------------------|| 
D|-------------------------||  (4x) 
A|-------------------------|| 
E|-0----2--3----5--5--7----||

Overdub on 3rd and 4th Intro. 
 
   PM PM PM    PM  PM  PM PM PM
E|--------------------------------| 
B|--------------------------------| 
G|--------------------------------| 
D|--------------------------------| 
A|-7--9--10----12--10--9--7--6----|  
E|--------------------------------| 
 
Synth arr. for Guitar 
 
"No one´s going to take me alive" 
 
 Em
E|-----------------------0--| 
B|-----------------0---0----| 
G|-----------0---0---0------| 
D|-----2---2---2------------| x2 
A|---2---2------------------| 
E|-0------------------------| 
 
 Bm
E|----------------------2--| 
B|----------------3---3----| 
G|----------4---4---4------| 
D|----4---4---4------------| x2 
A|--2---2------------------| 
E|-------------------------| 
 
"The time has come to make things right" 
 
 A
E|-------------------0-| 
B|-------------0---0---| 
G|------2----2---2-----| 
D|----2----2-----------| x2 
A|--0------------------| 
E|---------------------| 
 
 Em
E|-----------------------0--| 
B|-----------------0---0----| 
G|-----------0---0---0------| 
D|-----2---2---2------------| x2 
A|---2---2------------------| 
E|-0------------------------| 
 
"You and I must fight for our right" 
 
 Em
E|-----------------------0--| 
B|-----------------0---0----| 
G|-----------0---0---0------| 
D|-----2---2---2------------| x2 
A|---2---2------------------| 
E|-0------------------------| 
 
 Bm
E|----------------------2--| 
B|----------------3---3----| 
G|----------4---4---4------| 
D|----4---4---4------------| x2 
A|--2---2------------------| 
E|-------------------------| 
 
"You and I must fight to survive" 
 
 A
E|-------------------0-| 
B|-------------0---0---| 
G|------2----2---2-----| 
D|----2----2-----------| x2 
A|--0------------------| 
E|---------------------| 
 
 Em
E|-----------------------0--| 
B|-----------------0---0----| 
G|-----------0---0---0------| 
D|-----2---2---2------------| x2 
A|---2---2------------------| 
E|-0------------------------| 
 
Riff 
E|-----------------------------------------------| 
B|-----------------------------------------------| 
G|-----------------------------------------------| 
D|----------------------------------------5------| 
A|-5h7-7-7-7--5h7-7-7-7--5h7-7-7-7--5-7-5---5-7--| 
E|-----------------------------------------------| 
 
E|-----------------------------------------------| 
B|-----------------------------------------------| 
G|-----------------------------------------------| 
D|-----------------------------------------------| 
A|-5----------5----------5----------5-----5h7-7--| 
E|---7-7-7-7----7-7-7-7----7-7-7-7----7-7--------| 
 
E|-----------------------------------------------| 
B|-----------------------------------------------| 
G|-----------------------------------------------| 
D|-----------------------------------------------| 
A|-7p0-0-0-0--7p0-0-0-0--7p0-0-0-0--7p0-0--------| 
E|----------------------------------------7-5-3--| 
 
E|---------------------------------------------| 
B|---------------------------------------------| 
G|---------------------------------------------| 
D|---------------------------------------------| 
A|---------------------------------------------| 
E|-3p0-0-0-0--3p0-0-0-0--3p0-0-0-0--3p0-0-0-0--| 
 
End Solo 
E|-12----------------10--------9----7--5h7p5----3--------| 
B|-------12----------------------------------------------| 
G|-------------12----------------------------------------| 
D|-------------------------------------------------------| x 2 
A|-------------------------------------------------------| 
E|-------------------------------------------------------| 
Tremolo Pick All Notes 
 
End Riff 
E|---------------------------------------------| 
B|---------------------------------------------| 
G|---------------------------------------------| 
D|---------------------------------------------| 
A|---------------------------------------------| 
E|-3p0-0-0-0--3p0-0-0-0--3p0-0-0-0--3p0-3-5-7--| 
 
E|----------------------------------------------| 
B|----------------------------------------------| 
G|----------------------------------------------| 
D|----------------------------------------------| 
A|---------------------------------5h7-7-5h7-7--| 
E|-3p0-0-0-0--3p0-0-0-0--3p0-0-0-0--------------|
Acordes para:
    Composição: MuseColaboração e revisão:
    • Gameplays CCXXI
    • Luiz Camilotti

    0 comentários

      mostrar mais comentários

      Conseguiu tocar?

      3tocaram1ainda não

      Grave um vídeo tocando Knights Of Cydonia e mande pra gente!

      00:00 / 00:00
      outros vídeos desta música
      repetirqualidadeautomática
      Outro vídeos desta música
        00:00 / 00:00
        automática
        OK