Cifra Club

Aprenda

Chinese Democracy

Guns N' Roses

Cifra: Versão 6 (violão e guitarra)
Tom: C
Main riff:

e--------------------------------------------------------------------|
B--------------------------------------------------------------------|
G--------------------------------------------------------------------|
D--2-2---2-5-5-5-7-7-7-7-7-8-7----2-2---2-5-5-5-7-7-7-7-7-8----------|
A--2-2---2-5-5-5-7-7-7-7-7-8-7----2-2---2-5-5-5-7-7-7-7-7-8----------|
E--0-0---0-3-3-3-5-5-5-5-5-6-5----0-0---0-3-3-3-5-5-5-5-5-6----------|

verse:

(bass)
G---------------------------------------------------------------------|
D---------------------------------------------------------------------|
A---------------------------------------------------------------------|
E--0-0---0-3-3-3-5-5-5-5-5-6-5-----0-0---0-3-3-3-3-5-5-5-5-5-6--------|


Chorus:

e---------------------------------------------------------|
B---------------------------------------------------------|
G---------------------------------------------------------|
D--------9-99---11/7--------------------------------------|
A--7-77--7-77---9-/5--------------------------------------|
E--5-55---------------------------------------------------|


e------------------------------------------|
B------------------------------------------|
G------------------------------------------|
D------------------------------------------|
A---7--7--7-7-7-7---5-5-5--3---------------|
E---5--5--5-5-5-5---3-3-3--1---------------|


and there you go my 3rd effort to try and get a tab accepted

by stuart "look behind you" minton
Composição de Axl Rose / Josh Freese
2.151 exibições
  • Simplificar cifra
    • ½ Tom
    • A
    • Bb
    • B
    • C
    • Db
    • D
    • Eb
    • E
    • F
    • F#
    • G
    • Ab
  • Adicionar à lista

    0 comentários

    Mostrar mais comentários

    Conseguiu tocar?

    0 Tocaram 0 Ainda não

    Grave um vídeo tocando Chinese Democracy e mande pra gente!

    00:00 / 00:00
    outros vídeos desta música
    repetir qualidade Automático
    Outros vídeos desta música
    00:00 / 00:00
    Automático

    Cifra Club Pro

    Aproveite o Cifra Club com benefícios exclusivos e sem anúncios
    Cifra Club Pro
    Aproveite o Cifra Club com benefícios exclusivos e sem anúncios
    OK