Enviar cifraEntrar

Civil War

Guns N' Roses

Cifra: Principal
exibições 726.542
Tom: G Afinação: Eb Ab Db Gb Bb Eb
Introdução: Em  G
            Em  G  D/F#

(Violão)


E|------------------------------------------|
B|------------------------------------------|
G|---------0---------------0----------------|
D|-----2-----2---2-----2-----2-----0--------|
A|---2---2-----2-----2---2-----0h2----------|
E|-0---------------0------------------------|


E|------------------------------------------|
B|------------------------------------------|
G|---------0---------------0----------------|
D|-----0-----0---0-----0-----0-----0--------|
A|---2---2-----2-----2---2-----0h2----------|
E|-3---------------3------------------------|


E|------------------------------------------|
B|------------------------------------------|
G|---------0---------------0----------------|
D|-----2-----2---2-----2-----2-----0--------|
A|---2---2-----2-----2---2-----0h2----------|
E|-0---------------0------------------------|


E|------------------------------------------|
B|------------------------------------------|
G|---------0-----------------2-0---0--------|
D|-----0-----0-----0-----0-------2----------|
A|---2---2-----0h2-----0---0----------------|
E|-3-----------------2----------------------|


(Guitarra)


E|-12----10--------------------------------------------|
B|-------------10-11-12~-------------------------------|
G|-----------------------------------------------------|
D|-----------------------------------------------------|
A|-----------------------------------------------------|
E|-----------------------------------------------------|


E|-10----10--------------------------------------------|
B|-------------10-11-12~----10\8\7\5~------------------|
G|-----------------------------------------------------|
D|-----------------------------------------------------|
A|-----------------------------------------------------|
E|-----------------------------------------------------|


"What we've got here 
Is failure to communicate
Some men you just can't reach
So you get what we had here last week
Which is the way he wants it
Well, he gets it
I don't like it any more than you men"


Primeira Parte:

 Em
Look at your young men fighting
 G
Look at your women crying
 Em
Look at your young men dying
  G                     D/F#
The way they've always done before

( Em  G  Em  G  D/F# )

(Violão 2)


E|---------0---------------0----------------|
B|-----3-----3---3-----3-----3---3----------|
G|---0---0-----0-----0---0-----0------------|
D|-2---------------2------------------------|
A|------------------------------------------|
E|------------------------------------------|


E|---------0--------------------------------|
B|-----3-----3---3-----3-------3------------|
G|---0---0-----0-----0---0---0---0----------|
D|-5---------------5-------4----------------|
A|------------------------------------------|
E|------------------------------------------|


E|---------0---------------0----------------|
B|-----3-----3---3-----3-----3---3----------|
G|---0---0-----0-----0---0-----0------------|
D|-2---------------2------------------------|
A|------------------------------------------|
E|------------------------------------------|


E|---------0---------------0----------------|
B|-----3-----3---3-----3-----3---3----------|
G|---0---0-----0-----0---0-----0------------|
D|-5---------------4------------------------|
A|------------------------------------------|
E|------------------------------------------|


 Em
Look at the hate we're breeding
 G
Look at the fear we're feeding
 Em
Look at the lives we're leading
     G                D/F#
The way we've always done before

( A5 )

(Riff de Passagem)


E|-------0-----------0------------3-0----------3-2-----|
B|---------0---4-------4---5----0-----4h5----0-----3/5-|
G|----0------0----0------0----0------------0-----------|
D|-----------------------------------------------------|
A|-0---------------------------------------------------|
E|-----------------------------------------------------|



Segunda Parte:

              Em
My hands are tied
     G
The billions shift from side to side
         Em
And the wars go on with brainwashed pride
         G                   D/F#
For the love of god and our human rights

    Em
And all these things are swept aside
     G
By bloody hands time can't deny
         Em
And are washed away by your genocide
     G                 D/F#              A5
And history hides the lies of our civil wars

(Passagem)


E|------------------------------------------|
B|--------2-----4~-----4-----5~-----5-----5~|
G|-2------2-----4~-----4-----5~-----5-----7~|
D|-2------2-----4~-----4-----5~-----5-----7~|
A|-0--0-0---0-0----0-0---0-0----0-0---0-0---|
E|------------------------------------------|


E|------------------------------------------|
B|-----5~-----------------------------------|
G|-----7~-----------------------------------|
D|-----7~-----------------------------------|
A|-0-0----0-0-------------------------------|
E|------------------------------------------|



Primeiro Solo:


E|-----0------0---3--0------0-----3/-----x\------------|
B|-------0-3b---0-3----0-3b---0---3/-----x\------------|
G|-2b-------------0-------------0-0------x\------------|
D|-----------------------------------------------------|
A|-----------------------------------------------------|
E|-----------------------------------------------------|


E|----0------0---3--0------0-----3--3-2h3p2p0----------|
B|------0-3b---0-3----0-3b---0---3------------3-------3|
G|2b-------------0-------------0-0--------------0-2/4--|
D|-----------------------------------------------------|
A|-----------------------------------------------------|
E|-----------------------------------------------------|


E|-----0------0---3--0------0-----3--3-4-5-6-7-7/-\----|
B|-------0-3b---0-3----0-3b---0---3--3-4-5-6-7-7/-\----|
G|-2b-------------0-------------0-0--------------------|
D|-----------------------------------------------------|
A|-----------------------------------------------------|
E|-----------------------------------------------------|


E|-----0------0---3--0------0-----3----2----3----------|
B|-------0-3b---0-3----0-3b---0---3----3----3----------|
G|-2b-------------0-------------0-0---------0----------|
D|-----------------------------------------------------|
A|-----------------------------------------------------|
E|-----------------------------------------------------|



Terceira Parte:

                 G
Did you wear a black armband
            Bm
When they shot the man
      
Who said
Em
   Peace could last forever
           G
And in my first memories
          Bm
They shot    Kennedy
Em                  C          D
I went numb when I learned to see

      G              Bm
So I never fell for Vietnam
            Em
We got the wall of D.C. to remind us all
          G
That you can't trust freedom
           Bm
When it's not in your hands
     Em
When everybody's fighting
              C5    D5
For their promised land


Primeiro Refrão:

G              B5              E5
  And I don't need your civil war
G               B5                       E5  ( C5  D5 )
  It feeds the rich while it buries the poor
G               B5
  You're power hungry sellin' soldiers
     E5
In a    human grocery store, ain't that fresh?
G          B5              E5  ( C5  D5 )
  I don't need your civil war


Segundo Solo:


E|----------10-----------------------------------------|
B|-10b12-------b12r10p8-10~---8-10-b12r10p8------------|
G|------------------------------------------9~~/--\----|
D|-----------------------------------------------------|
A|-----------------------------------------------------|
E|-----------------------------------------------------|


E|-----------------------------------------------------|
B|--------3-------------------3-----------3/5~-3h5p3-1-|
G|-2b4------b4r2p0-2~---0-2/4---4\2p0-2p0--------------|
D|-----------------------------------------------------|
A|-----------------------------------------------------|
E|-----------------------------------------------------|


E|-----------------------------------------------------|
B|-3--1h3p1-0------------------------------------------|
G|------------0----------------------------------------|
D|--------------0--------------------------------------|
A|-----------------------------------------------------|
E|-----------------------------------------------------|


E|-----------------------------------------------------|
B|-8b10----b10r8-7-8-7b8~~r7p5-------------------------|
G|-----------------------------7-4---------------------|
D|-----------------------------------------------------|
A|-----------------------------------------------------|
E|-----------------------------------------------------|


E|-8b10--8-7-8-7h8p7p5---5-----------------------------|
B|---------------------8---8p7p5~----------------------|
G|-----------------------------------------------------|
D|-----------------------------------------------------|
A|-----------------------------------------------------|
E|-----------------------------------------------------|


E|----------10-----------------10-10b12~---b12-10-7----|
B|-10b12-------b12r10--8-10b12-------------------------|
G|-----------------------------------------------------|
D|-----------------------------------------------------|
A|-----------------------------------------------------|
E|-----------------------------------------------------|


E|-----------------------------------------------------|
B|-10b12r10p8------------------------------------------|
G|------------9~---7-----------------------------------|
D|-------------------9\7p5-7-5-7b8r7-5-----------------|
A|-------------------------------------7p5-7~----------|
E|-----------------------------------------------------|



Quarta Parte:

 Em
Look at the shoes you're filling
 G
Look at the blood we're spilling
 Em
Look at the world we're killing
     G                D/F#
The way we've always done before

 Em
Look in the doubt we've wallowed
 G
Look at the leaders we've followed
 Em
Look at the lies we've swallowed
    G              D/F#
And I don't wanna hear no more

( A5 )


Quinta Parte:

              Em
My hands are tied
    G
For all I've seen has changed my mind
               Em
But still the wars go on as the years go by
         G              D/F#
With no love of god or human rights

      Em
Cause all these dreams are swept aside
     G
By bloody hands of the hypnotized
     Em
Who carry the cross of homicide
     G                  D/F#              Em
And history bears the scars of our civil wars


Terceiro Solo:


E|-----0------0---3--0------0-----3--------------------|
B|-------0-3b---0-3----0-3b---0---3--------------------|
G|-2b-------------0-------------0-0--------------------|
D|-----------------------------------------------------|
A|-----------------------------------------------------|
E|-----------------------------------------------------|


E|-3p0-2h3p2p0-----------------------------------------|
B|-------------3p0-----3-------------------------------|
G|-----------------2/4---4\2p0-2p0-2b4r2p0-2p0---------|
D|-----------------------------------------------------|
A|-----------------------------------------------------|
E|-----------------------------------------------------|


E|-----0------0---3--0------0-----3----2b3p0-2~--------|
B|-------0-3b---0-3----0-3b---0---3--------------------|
G|-2b-------------0-------------0-0--------------------|
D|-----------------------------------------------------|
A|-----------------------------------------------------|
E|-----------------------------------------------------|


E|-----0------0---3--0------0--------------------------|
B|-------0-3b---0-3----0-3b---0------------------------|
G|-2b-------------0-------------0-2b4~-----------------|
D|-----------------------------------------------------|
A|-----------------------------------------------------|
E|-----------------------------------------------------|


E|-----0------0---3--0------0-----3----2----5~~--------|
B|-------0-3b---0-3----0-3b---0---3----3----5~~--------|
G|-2b-------------0-------------0-0--------------------|
D|-----------------------------------------------------|
A|-----------------------------------------------------|
E|-----------------------------------------------------|



Interlúdio:


E|------------------------------------------|
B|------------------------------------------|
G|-2------2-----4~-----4-----5~-----5-----7~|
D|-2------2-----4~-----4-----5~-----5-----7~|
A|----0-0---0-0----0-0---0-0----0-0---0-0---|
E|------------------------------------------|


E|------------------------------------------|
B|------------------------------------------|
G|-----7-----10~-----10-----12~-----12-12-12|
D|-----7-----10~-----10-----12~-----12-12-12|
A|-0-0---0-0-----0-0----0-0-----0-0---------|
E|------------------------------------------|


"We practice selective annihilation
Of mayors and government officials
For example to create a vacuum then we fill that vacuum
As popular war advances, peace is closer"


Segundo Refrão:

G          B5              E5
  I don't need your civil war
G               B5                       E5  ( C5  D5 )
  It feeds the rich while it buries the poor
G               B5
  You're power hungry sellin' soldiers
     E5
In a    human grocery store, ain't that fresh?
G              B5              E5  ( C5  D5 )
  And I don't need your civil war

G          B5              E5
  I don't need your civil war
G          B5              E5 ( C5  D5 )
  I don't need your civil war
G               B5
  You're power hungry sellin' soldiers
     E5
In a    human grocery store, ain't that fresh?
G          B5              E5 ( C5  D5 )
  I don't need your civil war


Solo Final: 


E|-----------------------------------------------------|
B|--------12h15p12----12h15p12----12h15h12----...------|
G|-14b16-----------14----------14----------14----------|
D|-----------------------------------------------------|
A|-----------------------------------------------------|
E|-----------------------------------------------------|


E|-----------------------------------------------------|
B|-15b17r15--15-13-15-13h15p13\12h13p12----12----------|
G|--------------------------------------15----15-14----|
D|-----------------------------------------------------|
A|-----------------------------------------------------|
E|-----------------------------------------------------|


E|-----------------------------------------------------|
B|-----------------------------------------------------|
G|-14h15p14p12-14p12----12-----------------------------|
D|-------------------14----14-13-12--------------------|
A|-----------------------------------------------------|
E|-----------------------------------------------------|


E|-15b17r15--15-14-15-14h15p14p12-14--12h14p12----12---|
B|---------------------------------------------15------|
G|-----------------------------------------------------|
D|-----------------------------------------------------|
A|-----------------------------------------------------|
E|-----------------------------------------------------|


E|-----------------------------------------------------|
B|-17b20r----------------------------------------------|
G|-----------------------------------------------------|
D|-----------------------------------------------------|
A|-----------------------------------------------------|
E|-----------------------------------------------------|


E|--------20b22r--20-19-20-19h20p19p17-19--17----------|
B|-----17-------------------------------------19b20----|
G|-/19-------------------------------------------------|
D|-----------------------------------------------------|
A|-----------------------------------------------------|
E|-----------------------------------------------------|


E|--------------------------------12-------------------|
B|-19-17-17b20r17p15\12----15b17-----15-12-------------|
G|----------------------14-----------------14b15r14p12-|
D|-----------------------------------------------------|
A|-----------------------------------------------------|
E|-----------------------------------------------------|


E|-----------------------------------------------------|
B|-----------------------------------------------------|
G|-----------------------------------------------------|
D|-14~-------------------------------------------------|
A|-----------------------------------------------------|
E|-----------------------------------------------------|


E|-17b19--b19r17-15-17-17~---15-17-15-b19r17p15--17-15-|
B|-----------------------------------------------------|
G|-----------------------------------------------------|
D|-----------------------------------------------------|
A|-----------------------------------------------------|
E|-----------------------------------------------------|


E|-17b--15b--------------------------------------------|
B|-----------17~------15b--17-15-----------------------|
G|-----------------16------------16-14b-14-------------|
D|-----------------------------------------17-14-17~---|
A|-----------------------------------------------------|
E|-----------------------------------------------------|


I don't need one more war
I don't need one more war

What's so civil about war, anyway?

Final:


E|-----------------------------------------------------|
B|-----------------------------------------------------|
G|-7/9\7--4~-----------------7/9~----------------------|
D|-------------7/9\7\5\-2------------7/9\7\5-5~--------|
A|-5/7\5--2~-----------------5/7~----------------------|
E|-------------5/7\5\3\-0------------5/7\5\3-3~--------|
  • 1
  • 2
  • 3
  • 4
  • 5
  • 6
  • 7
  • 8
  • 9
  • 10
  • 11
  • 12
    Acordes para:
      Composição: Axl Rose / Duff McKagan / SlashColaboração e revisão:

      0 comentários

        mostrar mais comentários

        Conseguiu tocar?

        140tocaram5ainda não

        Grave um vídeo tocando Civil War e mande pra gente!

        00:00 / 00:00
        outros vídeos desta música
        repetirqualidadeautomática
        • automática
        Outro vídeos desta música
          Capítulos
          • Tocando a música
          • Dicas Iniciais / Equipamentos
          • Acordes da Introdução
          • Tocando a Introdução
          • Introdução - Violão
          • Introdução - Guitarra
          • Tocando a Primeira Parte
          • Primeira Parte - Violão 2
          • Primeira Parte - Riff de Passagem
          • Acordes da Segunda Parte
          • Tocando a Segunda Parte
          • Segunda Parte - Variação 1
          • Segunda Parte - Variação 2
          • Passagem para o Primeiro Solo
          • Tocando o Primeiro Solo
          • Primeiro Solo - Parte 1 de 4
          • Primeiro Solo - Parte 2 de 4
          • Primeiro Solo - Parte 3 de 4
          • Primeiro Solo - Parte 4 de 4
          • Acordes da Terceira Parte
          • Acordes do Refrão
          • Tocando a Terceira Parte e Primeiro Refrão
          • Ritmo da Terceira Parte
          • Ritmo do Primeiro Refrão
          • Tocando o Segundo Solo
          • Segundo Solo - Parte 1 de 4
          • Segundo Solo - Parte 2 de 4
          • Segundo Solo - Parte 3 de 4
          • Segundo Solo - Parte 4 de 4
          • Tocando a Quarta Parte e Terceiro Solo
          • Terceiro Solo - Parte 1 de 4
          • Terceiro Solo - Parte 2 de 4
          • Terceiro Solo - Parte 3 de 4
          • Terceiro Solo - Parte 4 de 4
          • Tocando o Interlúdio
          • Interlúdio
          • Tocando o Segundo Refrão e Final
          • Solo Final - Parte 1 de 4
          • Solo Final - Parte 2 de 4
          • Solo Final - Parte 3 de 4
          • Solo Final - Parte 4 de 4
          • Final
          • Encerramento
          • Ficha Técnica / Erros de Gravação
          00:00 / 00:00
          automática
          • automática
          fecharplay/pause subir/descer velocidade
            acordes
            fechar
            OK
            Feedback