Cifra Club

Aprenda

Double Talkin' Jive

Guns N' Roses

Cifra: Principal (violão e guitarra)
Tom: A
 A5                        G5              E5           G5
--------------------------------------------------------------------
--------------------------------------------------------------------
--------------------------------------------------------------------
-2-------------------------5---------------2------------5-----------
-2-------------------------5---------------2------------5-----------
-0-------------------------3---------------0------------3-----------

 D5     A5     E5                       D5      A5      G5      D5
------------------------------------------------------------------------
------------------------------------------------------------------------
-7-------------9------------------------7-----------------------7-------
-7------7------9--------9-9-9-9-9-9-9-9-7-------7-------5-------7-------
-5------7------7------------------------5-------7-------5-------5-------
--------5---------------------------------------5-------3---------------

 E5
-----------------------------------------------------------------------
-----------------------------------------------------------------------
-----------------------------------------------------------------------
-----------------------------------------------------------------------
-----------------------------------------------------------------------
-0-3-0--0-3-0--0-3-0--0-3-0--0-3-0--0-3-0--0-3-0--0-3-0--0-3-0--0-3-0--

 E5                                        F5
-------------------------------------------------
-------------------------------------------------
-------------------------------------------------
-0h2--0h2-------------------0h2--0h2--0h2--3-----
-0h2--0h2-------------------0h2--0h2--0h2--3-----
---------0-3-0--0-3-0--0-3-0---------------------

 E5                                        F5
-------------------------------------------------
-------------------------------------------------
-------------------------------------------------
-0h2--0h2-------------------0h2--0h2--0h2--3-----
-0h2--0h2-------------------0h2--0h2--0h2--3-----
---------0-3-0--0-3-0--0-3-0---------------------

E5                                         F5
-------------------------------------------------
-------------------------------------------------
-------------------------------------------------
-0h2--0h2-------------------0h2--0h2--0h2--3-----
-0h2--0h2-------------------0h2--0h2--0h2--3-----
---------0-3-0--0-3-0--0-3-0---------------------

E5                                   F5
-------------------------------------------
-------------------------------------------
-------------------------------------------
-0h2--0h2-------------------0h2--0h2-3-----
-0h2--0h2-------------------0h2--0h2-3-----
---------0-3-0--0-3-0--0-3-0---------------

 E5
-------------------------------------------------------------------------------------
-------------------------------------------------------------------------------------
-------------------------------------------------------------------------------------
-2---2-2--------------2---2-2--------------2---2-2--------------2---2-2--------------
-2---2-2-------2p0----2---2-2-------2p0----2---2-2-------2p0----2---2-2-------2p0----
----0-----0-3p0---3p0----0-----0-3p0---3p0----0-----0-3p0---3p0----0-----0-3p0---3p0-
(2x)

(verso)
 E5
-------------------------------------------
-------------------------------------------
-------------------------------------------
-2---2-2--------------2---2-2--------------
-2---2-2-------2p0----2---2-2-------2p0----
----0-----0-3p0---3p0----0-----0-3p0---3p0- (2x)

Found a head and an arm in a garbage can
Don't know I'm here?
Live on the run for oh so long
I gotta go colect.

(refrão)
 C5      B5      E5
--------------------------------------
--------------------------------------
--------------------------------------
-5-------4-------2---2-2--------------
-3-------2-------2---2-2-------2p0----
--------------------0-----0-3p0---3p0-
Double talkin' jive get the money motherfucker
'Cause I got no more patience

 C5      B5      E5
----------------------------------------------------------------------------------------------------
----------------------------------------------------------------------------------------------------
----------------------------------------------------------------------------------------------------
-5-------4-------2---2-2--------------2---2-2--------------2---2-2--------------2---2-2-------------
-3-------2-------2---2-2-------2p0----2---2-2-------2p0----2---2-2-------2p0----2---2-2------2p0----
--------------------0-----0-3p0---3p0----0-----0-3p0---3p0----0-----0-3p0---3p0---------0-3p0---3p0-
Double talkin' lies!  No more patience man       you dig what I'm sayin'  oh  fuck!      auuuuuhhh

(verso)
 E5
-------------------------------------------
-------------------------------------------
-------------------------------------------
-2---2-2--------------2---2-2--------------
-2---2-2-------2p0----2---2-2-------2p0----
----0-----0-3p0---3p0----0-----0-3p0---3p0- (2x)

Back in town an' a all new friends
They sayin' how ya been?
Fucked up and outta place
That's how I felt back then.

(refrão)
 C5      B5      E5
--------------------------------------
--------------------------------------
--------------------------------------
-5-------4-------2---2-2--------------
-3-------2-------2---2-2-------2p0----
--------------------0-----0-3p0---3p0-
Double talkin' jive get the money motherfucker
'Cause I got no more patience

 C5      B5     E5
----------------------------------------------------------------------------------------------------
----------------------------------------------------------------------------------------------------
----------------------------------------------------------------------------------------------------
-5-------4------2---2-2--------------2---2-2--------------2---2-2--------------2---2-2--------------
-3-------2------2---2-2-------2p0----2---2-2-------2p0----2---2-2-------2p0----2---2-2-------2p0----
-------------------0-----0-3p0---3p0----0-----0-3p0---3p0----0-----0-3p0---3p0----0-----0-3p0---3p0-
Double talkin'- I got {lies}   no more patience man       you dig what the fuching i'm sayin'  oh  fock!

(solo)
--------------------------------------------------------------------------------
-----------------------------------------------------8-6-5-6/8-6h8p6-5-6p5------
-------------------------4v----7v-----5h7p5-4-5v----5---------------------4-7p4-
-2/3----2/3-5-3-2h3p2-----------------------------------------------------------
---------------------2----------------------------------------------------------
--------------------------------------------------------------------------------

 F                                   E
----1-------1-------1-------1-----------0-------0-------0-------0----
---1-1-1---1-1-1---1-1-1---1-----------0-0-0---0-0-0---0-0-0---0-0-0-
--2---2---2---2---2---2---2-----------1---1---1---1---1---1---1---1--
-3-------3-------3-------3-----3/5-3-2-------2-------2-------2-------
---------------------------------------------------------------------
---------------------------------------------------------------------

----1-------1-------1-------1----------0-------0----------------------------
---1-1-1---1-1-1---1-1-1---1----------0-0-0---0-0-0-------------------------
--2---2---2---2---2---2---2----------1---1---1---1--------------------------
-3-------3-------3-------3----3/5-3-2-------2--------14-14-15---17-15-14h15-
----------------------------------------------------------------------------
----------------------------------------------------------------------------

-0-1-3--0-1-1v------------------------------------------------------------
------------------1-1-1--3-1-0-1-0----------------------------------------
---------------------------------2-2v----2-2/5-4-4-4v---------------------
-------------------------------------------------------2-2-2--2-2-3-3v----
--------------------------------------------------------------------------
--------------------------------------------------------------------------

--------------------8-7-5-----------------------
-----------5-6-8---------8-6-5h6p5---6--5h6p5---
------4-5-7-----------------------7-5-----------
-3-5-6------------------------------------------
------------------------------------------------
------------------------------------------------

----------------------------------------------------------------------
----------------------------------------------------------------------
-----12p10p9-------12p10p9-------12p12p9-12p10p9-------12p10p9--------
-12p9-------12p10p9-------12p10p9---------------12p10p9-------12p10p9-
----------------------------------------------------------------------
----------------------------------------------------------------------

--------------------------------------------------------------------------
--------------------------------------------------------------------------
-12p10p9-12p10p9-------12p10p9-------12p10p9-12p10p9-------12p10p9--------
----------------12p10p9-------12p10p9---------------12p10p9-------12p10p9-
--------------------------------------------------------------------------
--------------------------------------------------------------------------

--------------------------------------------------------------10-12-13------
------------------------------------------------------10-12-13--------10----
-12p10p9-12p10p9---------------12p10p9---------9-10-12----------------------
----------------12p10p9-12p10p9---------9-10-12-----------------------------
----------------------------------------------------------------------------
----------------------------------------------------------------------------

------10-12-13-12-10--------13--10--------13--10--------13--10---------
-12-13--------------13-12-10--12--13-12-10--12--13-12-10--12--13-12-10-
-----------------------------------------------------------------------
-----------------------------------------------------------------------
-----------------------------------------------------------------------
-----------------------------------------------------------------------

-12-9----------------------------------------------------------------------------
-----12-10-9h10p9h10p9-----------------------------------------------------------
----------------------12-10h12p10h12p10-9h10p9h10p9------------------------------
---------------------------------------------------12-10h12p10h12p10-9h10p9h10p9-
---------------------------------------------------------------------------------
---------------------------------------------------------------------------------

 F                                 G F E
----1--------1--------1--------1----------0--------0--------0--------0----
---1--1-----1--1-----1--1-----1-------------------------------------------
--2----2---2----2---2----2---2-----------1--1-----1--1-----1--1-----1--1--
-3--------3--------3--------3----3/5-3--2----2---2----2---2----2---2----2-
---------------------------------------2--------2--------2--------2-------
-------------------------------------------------------------------------- (2x)

-0-1-3---0-1-1v-----------------------------------------------------------------------------
------------------1-1-1v---1/3-1-0-1-0---------------------------------------------5-6-7v---
--------------------------------------2-2v---2-2/5-4-4-4v-----------------------4-7---------
-----------------------------------------------------------2-2-2--3-3-3v---3-5-6------------
--------------------------------------------------------------------------------------------
--------------------------------------------------------------------------------------------
Composição de Izzy Stradlin
Colaboração e revisão:
  • Jefferson Sousa
20.641 exibições
    • ½ Tom
    • A
    • Bb
    • B
    • C
    • Db
    • D
    • Eb
    • E
    • F
    • F#
    • G
    • Ab
  • Adicionar à lista

    0 comentários

    Mostrar mais comentários

    Conseguiu tocar?

    5 Tocaram 1 Ainda não

    Grave um vídeo tocando Double Talkin' Jive e mande pra gente!

    00:00 / 00:00
    outros vídeos desta música
    repetir qualidade Automático
    Outros vídeos desta música
    00:00 / 00:00
    Automático

    Cifra Club Pro

    Aproveite o Cifra Club com benefícios exclusivos e sem anúncios
    7 dias grátis
    Cifra Club Pro
    Aproveite o Cifra Club com benefícios exclusivos e sem anúncios
    7 dias grátis
    OK