Double Talkin' Jive

Guns N' Roses

Composição de: Izzy Stradlin
tom: G
 
From: *
To: *


I posted this a while back on a different account. I have since found out that I was wrong, so here it is.

main riff
-----------------------------------------------------------|
-----------------------------------------------------------|
-----------------------------------------------------------|
------2-----2--2-------------------2-----------------------|
------2-----2--2--------0--2--0----2-----------------------|
---0-----0--------0--3-----------3-------------------------|

acoustic riff
-----------1--------------------1---------------------1---------------------1-|
--------1-----1-----1--------1-----1-----1---------1-----1-----1---------1----|
-----2-----------2--------2-----------2---------2-----------2---------2-------|
--3--------------------3---------------------3---------------------3----------|
------------------------------------------------------------------------------|
------------------------------------------------------------------------------|

--3--1-----------0---------------------0--------------------0-----------------|
--3--1--------0-----0-----0---------0-----0-----0--------0-----0-----0--------|
--4--2-----1-----------1---------1-----------1--------1-----------1-----------|
--5--3--2---------------------2--------------------2--------------------2-----|
------------------------------------------------------------------------------|
------------------------------------------------------------------------------|

--------0--------------------------------------------------------------------|
-----0-----0-----0-----------------------------------------------------------|
--1-----------1--------------------------------------------------------------|
-----------------------------------------------------------------------------|
-----------------------------------------------------------------------------|
-----------------------------------------------------------------------------|

That's how I play it, anyway. I'm doing this at 3:30 am, so there may be some mistakes, and I would 
it if someone el
se could correct it, this mail program is hell. Oh well.

Bill
Página 1 / 1

Letras e título
Acordes e artista

resetar configurações
OK